Cifra Club

Aprenda

Yellow Ledbetter

Pearl Jam

Cifra: Guitarra (violão e guitarra)
Tom: E
[Introdução] E  B  A  E
             E  B  A  E

   E
E|------------------------------------------|
B|-----------------------9------------------|
G|-----------9--X--------9h11p9-------------|
D|-----------9--X--------9------11\---------|
A|------9h11----X---------------------------|
E|-0----------------------------------------|

   B
E|--------9p7--------7-9--------------------|
B|------------7------7-7--------------------|
G|------8-------8----8-8--------------------|
D|-------------------9-9--------------------|
A|------------------------------------------|
E|-/7---------------------------------------|

   A
E|-7p5----------------5h7p5-----------------|
B|-5----5-------------------5---------------|
G|-6------6-6h7p6---6----------6------------|
D|-7--------7-------------------------------|
A|----------0-------------------------------|
E|------------------------------------------|

   E
E|----------------12/14--12-9---------------|
B|----------------12/14--12-9---------------|
G|----------------------------11\-----------|
D|------------------------------------------|
A|------------------------------------------|
E|-0----------------------------------------|

   E 
E|------------------------------------------|
B|-----------------------9------------------|
G|-----------9--X--------9h11--9------------|
D|-----------9--X--------9-------11---------|
A|------9h11----X---------------------------|
E|-0----------------------------------------|

   B
E|---------9p7--9--7----7-9p7--9------------|
B|--------------7--7------7----7------------|
G|-----8--------8--8------8----8------------|
D|-------9----------------------------------|
A|------------------------------------------|
E|-7----------------------------------------|

   A
E|-7p5-----------5--------------------------|
B|-5--------5----5------5h7p5---------------|
G|-8--------6h7--7----7---------------------|
D|-7--------7-------------------------------|
A|------0-----------------------------------|
E|------------------------------------------|

   E
E|---------------------12/------------------|
B|---------------------12/------------------|
G|------------------------------------------|
D|----------------------------X\------------|
A|----------------------------X\------------|
E|-0--------------------------X\------------|


[Primeira Estrofe]

E
  Unsealed 
      B                 A
On a porch a letter sat

Then you said
         E
I wanna leave it again


[Segunda Estrofe]

E
  Once I saw her 
      B                      A
On a beach of weathered sand

And on the sand 
         E
I wanna leave it again


[Terceira Estrofe]

E
  On a weekend 
         B
I wanna wish it all away
          A
And they called and I said 

That I want what I said
            E
And then I call out again


[Quarta Estrofe]

E
  And the reason 
         B                     A
Oughta' leave her calm, I know

I said

I know what I were 
       E
Not a box or the bag


[Primeiro Refrão]

        E 
Oh yeah
              B
Can you see them
            A
Out on the porch?
                      E
Yeah, but they don't wave

I see them 
            B
Round the front way, yeah
        A
And I know, and I know 
                  E
I don't want to stay

Make me cry


[Solo] E  B  A  E

E|-----------------------------------------------------|
B|-------------12--------------------------------------|
G|------9----9----11b13--11b13--11b13r11p9-11~---------|
D|-9h11------------------------------------------------|
A|-----------------------------------------------------|
E|-----------------------------------------------------|

E|-----------------------------------------------------|
B|-----------------------------------------------------|
G|-9---------------------------------------------------|
D|---11\9---------------------7------------------------|
A|--------11\9p7---9b10r9p7-----9-7~---7---7---9b11~---|
E|--------------------------9------------9---9---------|

                                               \/\/\/ 
E|-------------9---------------------------------------|
B|-12b14r12~-----12-9----------------------------------|
G|--------------------11b13----11b13r11p9----11--------|
D|-----------------------------------------------------|
A|-----------------------------------------------------|
E|-----------------------------------------------------|

E|-----------------------------------------------------|
B|-----------------12----12h14~------------------------|
G|-11-9----9-11/13----13-------------------------------|
D|------11---------------------------------------------|
A|-----------------------------------------------------|
E|-----------------------------------------------------|

E|--------------------14b16r14--12----12-14-12~---12\--|
B|-14p12-14p12-14p12---------------14------------------|
G|-----------------------------------------------------|
D|-----------------------------------------------------|
A|-----------------------------------------------------|
E|-----------------------------------------------------|

E|--------9----------9---------------------------------|
B|------9---9-12b14~---12-9----------------------------|
G|11b13---------------------11-b13r11p9-11-9----------9|
D|-------------------------------------------11-11-11--|
A|-----------------------------------------------------|
E|-----------------------------------------------------|

E|-----------------------------------------------------|
B|-----------------------------------------------------|
G|-11-9----9-11p9-11b14r11----9----9-11-9~-------------|
D|------11----------------------11---------------------|
A|-----------------------------------------------------|
E|-----------------------------------------------------|

E|-----------------------------------------------------|
B|-------12----14~--12h14p12h14p12h14p12h14p12h14p12h14|
G|-11/13----13-----------------------------------------|
D|-----------------------------------------------------|
A|-----------------------------------------------------|
E|-----------------------------------------------------|

E|-----------------------------------------------------|
B|-p12h14p12h14p12h14\---------------------------------|
G|-----------------------------------------------------|
D|-----------------------------------------------------|
A|-----------------------------------------------------|
E|-----------------------------------------------------|


[Quinta Estrofe]

E  B    A
     I see
                          E
I don't know why there's something eles
                      B
I wanna drum it all away
           A
Oh, I said

I don't, I don't know where 
           E
There's a box or the bag


[Segundo Refrão]

        E 
Oh yeah
              B
Can you see them
            A
Out on the porch?
                      E
Yeah, but they don't wave

But I see them  
            B
Round the front way
        A
And I know, and I know 


[Sexta Estrofe]

                E  B    A
I don't wanna stay   at all
                E  B  A
I don't wanna stay
                E  B  A
I don't wanna stay
                E 
I don't wanna stay
   B            A
I don't, don't wanna


[Ponte] E5/D#  E5  B
        E5/D#  E5  A



[Final]

   E
E|------------------------------------------|
B|-----------9-----------9------------------|
G|-----------9--X--X-----9h11p9-------------|
D|-----------9--X--X-----9------11\---------|
A|------9h11----X--X------------------------|
E|-0----------------------------------------|

   B
E|----------9p7---------9p7-9---------------|
B|--------7-----7-------7---7---------------|
G|------8---------8-----8---8---------------|
D|----------------------9---9---------------|
A|------------------------------------------|
E|-/7---------------7-----------------------|

   A
E|-7p5-----------------7p5-5-5--------------|
B|-5--------5----------5---5-5--------------|
G|-6----6---6h7p6------6---6-6--------------|
D|-7--------7----------7---7-7--------------|
A|----------0--------0----------------------|
E|------------------------------------------|

   E
E|----------------12/14--12-9---------------|
B|----------------12/14--12-9---------------|
G|----------------------------11\-----------|
D|------------------------------------------|
A|------------------------------------------|
E|-0----------------------------------------|

   E 
E|------------------------------------------|
B|-----------9-----------9------------------|
G|-----------9--X--------9h11p9-------------|
D|-----------9--X--------9-------11\--------|
A|------9h11----X---------------------------|
E|-0----------------------------------------|

   B
E|----------9p7------9/11~/-\---------------|
B|------------------------------------------|
G|-----------------9--/11-------------------|
D|----------------------------------X\------|
A|----------------------------------X\------|
E|-/7-----7-------------------------X\------|

   A
E|----------7p5----7/9~---------------------|
B|------------------------------------------|
G|---------------7--/9----------------------|
D|----------------------------------X\------|
A|----------------------------------X\------|
E|-5------5-------------------------X\------|

   E
               H.N.  .            .  .  .
E|----------------12-----------------24-----|
B|-------------12----12-----------24----24--|
G|------------------------------------------|
D|------------------------------------------|
A|------------------------------------------|
E|-0----------------------------------------|

   E 
E|------------------------------------------|
B|-----------9-----------9------------------|
G|-----------9--X--------9h11p9-------------|
D|-----------9--X--------9-------11\--------|
A|------9h11----X---------------------------|
E|-0----------------------------------------|

   B
E|--------9p7--9--7----7h9p7----------------|
B|--------7----7--7----7--------------------|
G|--------8----8--8----8--------------------|
D|--------9----9--9----9--------------------|
A|------------------------------------------|
E|-/7---------------------------------------|

   A
E|-7p5----------5h7p5----5------------------|
B|-5------5-----5--------5------------------|
G|-6------6-----6--------6h7----------------|
D|-7------7-----7--------7------------------|
A|--------0---------------------------------|
E|------------------------------------------|

   E
           H.N .
E|-------------12---------------------------|
B|---------12-------------------------------|
G|------------------------------------------|
D|------------------------------------------|
A|------------------------------------------|
E|-0----------------------------------------|
Composição de Eddie Vedder / Jeff Ament / Mike McCready
Colaboração e revisão:
  • Vinícius Dias
31 exibições
    • ½ Tom
    • A
    • Bb
    • B
    • C
    • Db
    • D
    • Eb
    • E
    • F
    • F#
    • G
    • Ab
  • Adicionar à lista

    0 comentários

    Mostrar mais comentários
    00:00 / 00:00
    outros vídeos desta música
    repetir qualidade Automático
    Outros vídeos desta música
    00:00 / 00:00
    Automático

    Cifra Club Pro

    Aproveite o Cifra Club com benefícios exclusivos e sem anúncios
    7 dias grátis
    Cifra Club Pro
    Aproveite o Cifra Club com benefícios exclusivos e sem anúncios
    7 dias grátis
    OK