Cifra Club

Mas Vó

Raimundos

Tab de baixo: Principal
intro:
G-|------------------três vezes------------------|-------------------------|
D-|----------------------------------------------|-------------------------|
A-|-10-10-10-10-10--5-5--6-6-6-6-6--3-3-3-3-3----|-5-5-5-5-5--6--2-2-2-2---|
E-|----------------------------------------------|-------------------------|

versos:
G-|----------------------------------------------|
D-|----------------------------------------------|
A-|-10-10-10-10-10--5-5--6-6-6-6-6--3-3-3-3-3----|
E-|----------------------------------------------|

refrão: (toque de novo na segunda vez)
G-|--------------------------------------|-------------------|
D-|--------------------------------------|-------------------|
A-|----------5-5-5-5--6-6-6-6--3-3-3-3---|-5-5-5-5-5--6--2---|
E-|-3-3-3-3------------------------------|-------------------|

solo: intro (toque uma vez a primeira parte)

final:
G-|--------------------|
D-|-5--------5---------|
A-|---5-4-3----5-4-3~--|
E-|--------------------|
Composição de Digão / Telo
Colaboração e revisão:
  • thyago
1.947 exibições

0 comentários

Ver todos os comentários

Conseguiu tocar?

1 Tocaram 0 Ainda não

Grave um vídeo tocando Mas Vó e nos envie!

00:00 / 00:00
Outros vídeos desta música
Repetir Qualidade Automático
Outros vídeos desta música
00:00 / 00:00
Automático

Cifra Club Pro

Aproveite o Cifra Club com benefícios exclusivos e sem anúncios
Cifra Club Pro
Aproveite o Cifra Club com benefícios exclusivos e sem anúncios
OK