Cifra Club

Charlie

Red Hot Chili Peppers

Tab de baixo: Principal
exibições 16.156
Introdução
G|-----------3-----------3------------------------|
D|------3--2-------3---2--------------------------|
A|---2---1-------2---1----------------------------|
E|-1-----------1----------------------------------|

1o Verso
G|----------------------------------------------------|
D|----------------------------------------------------|     Repetr isso até o refrão...
A|--------1-0------1-3-1-0-------1-0-----0-1-3-4-5----|
E|-3-1-3-------1-3---------3-1-3-----1-3--------------|      

Refrão
G|-----8-----7--------14-------12------8-----7--------14------12---
D|-----------------------------------------------------------------
A|-----------------------------------------------------------------
E|-8-8---6-6----13-13----11-11-----8-8---6-6----13-13----11-11-----

 -----8-----7--------14------12-----8-----7------14--------14------11--------11---|
 ---------------------------------------------------------------------------------|
 ---------------------------------------------------------------------------------|
 -8-8---6-6----13-13----11-11---8-8---6-6---13-13---131313----10-10---101010------|

Repetir o 1o verso até o refrão seguinte, repetir o refrão e entrar no ''solo''...

Solo
G|---------------------------------------------------------------------|
D|--------------8-------------10-------------------12------------------|Repetir até o final do solo       
A|-6666666-------8888888--------101010101010---------101010101010-8----|
E|----------6h8----------8h10----------------10h12---------------------|

2o verso
G|-----------------------------------------------|
D|-------------------------------------353-------| 
A|-------1-0-----1-3-1-0------1-3---------53-----|
E|-3-1-3-----1-3--------3-1-3-----1-3-------631--|

Volta a repetir o 1o verso até o refrão depois o solo e agora o final que só fica guitarra e baixo.

Final
G|------------------------------------------------------10--12--10----------------------------------------|
D|------------------------------------------------12-12---12--12---12-10----------------------------------|
A|-66666666-----88888888------1010101010101010---------------------------13-13-66666666---88888888--------|
E|---------6-8-----------8-10------------------10--------------------------------------6-8---------3-1-3--|
Composição: Anthony Kiedis / Chad Smith / Flea / John FruscianteColaboração e revisão:
  • Lucas Cunha
  • Renan Neves

0 comentários

    mostrar mais comentários

    Conseguiu tocar?

    5tocaram0ainda não

    Grave um vídeo tocando Charlie e mande pra gente!

    00:00 / 00:00
    outros vídeos desta música
    repetirqualidadeautomática
    Outro vídeos desta música
      00:00 / 00:00
      automática
      OK