Cifra Club

Dance, Dance, Dance

Red Hot Chili Peppers

Cifra: Principal
exibições 3.891
Tom: G
Intro:
|-~14-~~14--~~12--~~-10---|
|-------------------------|
|-------------------------|
|-------------------------|  (4x)
|-------------------------|
|-------------------------|

|--------------------------------------------|
|--~~8-~~7--~~10---~~12---~~~7--5--~~3--~~0--|
|--------------------------------------------|
|--------------------------------------------| (2x)
|--------------------------------------------|
|--------------------------------------------|

Verse :

Chords:

D ......Em

 (D)
|--x-x-x-x-x-x-x-x-x-|
|--x-x-x-x-x-x-x-x-x-|
|--x-x-x-x-x-x-x-x-x-|
|--7-x-7-x-7-x-7-x-7-|
|--5-x-5-x-5-x-5-x-5-|
|--------------------|

|-~14-~~14--~~12--~~-10---|
|-------------------------|
|-------------------------|
|-------------------------|
|-------------------------|
|-------------------------|

 (Em)
|--x-x-x-x-x-x-x-x-x-|
|--x-x-x-x-x-x-x-x-x-|
|--x-x-x-x-x-x-x-x-x-|
|--9-x-9-x-9-x-9-x-9-|
|--7-x-7-x-7-x-7-x-7-|
|--------------------|

|-~14-~~14--~~12--~~-10---|
|-------------------------|
|-------------------------|
|-------------------------|
|-------------------------|
|-------------------------|

Chorus:
Chords with Violoning and Reverb + Chorus + Delay:


A....GM7omit3......D

|--x-----x-----x-----|
|--5-----x-----7-----|
|--6-----11-----7----|
|--7-----12----7-----|
|--7-----10----5-----|
|--5-----x-----x-----|


Passage à 2min30:
|-7-x-x-7-x-7-x-x-7-x-7-x-x-7-x-7-x-x-7-x----9-9-9-9-|
|-7-x-x-7-x-7-x-x-7-x-7-x-x-7-x-7-x-x-7-x----9-9-9-9-|
|-7-x-x-7-x-7-x-x-7-x-7-x-x-7-x-7-x-x-7-x----9-9-9-9-|
|-7-x-x-7-x-7-x-x-7-x-7-x-x-7-x-7-x-x-7-x----7-7-7-7-|
|---x-x---x---x-x---x---x-x---x---x-x---x----x-x-x-x-|
|---x-x---x---x-x---x---x-x---x---x-x---x----x-x-x-x-|
Acordes para:
    Colaboração e revisão:
    • Leonardo Silva

    0 comentários

      mostrar mais comentários

      Conseguiu tocar?

      0tocaram0ainda não

      Grave um vídeo tocando Dance, Dance, Dance e mande pra gente!

      00:00 / 00:00
      outros vídeos desta música
      repetirqualidadeautomática
      Outro vídeos desta música
        00:00 / 00:00
        automática
        OK