Cifra Club

Aprenda

Rivers Of Avalon

Red Hot Chili Peppers

Cifra: Principal (violão e guitarra)
Tom: C
Tom: C

INTRO:

E|--------------------------------------------------
B|--------------------------------------------------
G|-----------------------------------------0--------  2x
D|---2---------------------0---2-0-------------2-2--
A|-0---0-2-3-----3---3-----------------3------------
E|-----------1-0---0---0-3---3-----3-1---1---1------

VERSO:

E|--------------------------------------------------
B|--------------------------------------------------
G|-----------------------------------------0--------  3x
D|---2---------------------0---2-0-------------2-2--
A|-0---0-2-3-----3---3-----------------3------------
E|-----------1-0---0---0-3---3-----3-1---1---1------

E|------------------------------------------------------
B|------------------------------------------------------
G|-----------------------------------------0-2-0-2-0-2-- 
D|---2---------------------0---2-0----------------------
A|-0---0-2-3-----3---3-----------------3----------------
E|-----------1-0---0---0-3---3-----3-1---1--------------

Deep inside these sleeping shallows,
Far away where no-one goes now,
Take my place in golden space
Of TV stars that no-one knows now,

Deep, deep mystery is talkin' to me,
She's the giver of constant animation,
All around and ready to make a new formation,
You're the reason I'm in this world...

REFRÃO:[sequência 4x]

E|--------------------------------------------------------------------------
B|--------------------------------------------------------------------------
G|--------------------------------------------------------------------------
D|--------14-14-14-14-12-14-------14-14-14-14-12-14------14-14-14-14-12-14--
A|--------------------------------------------------------------------------
E|-10-10---------------------8-8--------------------8-8---------------------

E|--------------------------
B|--------------------------
G|-14-12-12-14-12-12-14-12--
D|-14-14-14-14-14-14-14-14--
A|--------------------------
E|--------------------------

I don't believe in everything I see,
Rivers of Avalon,
Your supernatural energy,
Part of my scenery,
What I belong to is your ecstasy,
Rivers of Avalon,
Your faith unwavering is key,

VERSO:

E|--------------------------------------------------
B|--------------------------------------------------
G|-----------------------------------------0--------  3x
D|---2---------------------0---2-0-------------2-2--
A|-0---0-2-3-----3---3-----------------3------------
E|-----------1-0---0---0-3---3-----3-1---1---1------

E|------------------------------------------------------
B|------------------------------------------------------
G|-----------------------------------------0-2-0-2-0-2-- 
D|---2---------------------0---2-0----------------------
A|-0---0-2-3-----3---3-----------------3----------------
E|-----------1-0---0---0-3---3-----3-1---1--------------

The clone of my own loneliness
Has got to fade, what am I known to?
Little garland in your starling,
Loving waves that I've succumbed to,
Deep, deep mystery is talkin' to me,
She's the giver of constant adulation,
All around and ready to make a new formation,
You're the reason I'm this world...

REFRÃO:[sequência 4x]

E|--------------------------------------------------------------------------
B|--------------------------------------------------------------------------
G|--------------------------------------------------------------------------
D|--------14-14-14-14-12-14-------14-14-14-14-12-14------14-14-14-14-12-14--
A|--------------------------------------------------------------------------
E|-10-10---------------------8-8--------------------8-8---------------------

E|--------------------------
B|--------------------------
G|-14-12-12-14-12-12-14-12--
D|-14-14-14-14-14-14-14-14--
A|--------------------------
E|--------------------------

I don't believe in everything I see,
Rivers of Avalon,
Your supernatural energy,
Part of my scenery,
What I belong to is your ecstasy,
Rivers of Avalon,
Your faith unwavering is key,
What do you see in me?

SOLO:

E|------------------------------------------------------------------
B|------------------------------------------------------------------
G|------------------------------------------------------------------
D|--/7--7--7-7—7/14--12--10--9-9----/7--7--7-7—7/14--12--10--10/12--
A|------------------------------------------------------------------
E|------------------------------------------------------------------

E|--------------------------------------------------
B|--------------------------------------------------
G|--------------------------------------------------
D|--/7--7--7-7—7/14--12--10--9-9--7--7--7--7—7------
A|---------------------------------------------7~~--
E|--------------------------------------------------

INTERLÚDIO:
Am         C             G
Deep, deep mystery is talkin' to me,
             F
She's the giver of constant animation,

Am               C             G
All around and ready to make a new formation,
              F
You're the reason I'm in this world...

REFRÃO :[sequência 6x]

E|--------------------------------------------------------------------------
B|--------------------------------------------------------------------------
G|--------------------------------------------------------------------------
D|--------14-14-14-14-12-14-------14-14-14-14-12-14------14-14-14-14-12-14--
A|--------------------------------------------------------------------------
E|-10-10---------------------8-8--------------------8-8---------------------

E|-----------------------------
B|-----------------------------
G|-14-12-12-14-12-12-14-12...--
D|-14-14-14-14-14-14-14-14...--
A|-----------------------------
E|-----------------------------

I don't believe in everything I see,
Rivers of Avalon,
Your supernatural energy,
Part of my scenery,
What I belong to is your ecstasy,
Rivers of Avalon,
Your faith unwavering is key,

I don't believe in everything I see,
Rivers of Avalon,
Your supernatural energy,
All that it means...
Colaboração e revisão:
  • Hans
  • Rafael Souza
  • Renan Neves
8.233 exibições
    • ½ Tom
    • A
    • Bb
    • B
    • C
    • Db
    • D
    • Eb
    • E
    • F
    • F#
    • G
    • Ab
  • Adicionar à lista

    0 comentários

    Mostrar mais comentários

    Conseguiu tocar?

    1 Tocaram 0 Ainda não

    Grave um vídeo tocando Rivers Of Avalon e mande pra gente!

    00:00 / 00:00
    outros vídeos desta música
    repetir qualidade Automático
    Outros vídeos desta música
    00:00 / 00:00
    Automático

    Cifra Club Pro

    Aproveite o Cifra Club com benefícios exclusivos e sem anúncios
    7 dias grátis
    Cifra Club Pro
    Aproveite o Cifra Club com benefícios exclusivos e sem anúncios
    7 dias grátis
    OK