Cifra Club

Riding The Winds Of Eternity

Rhapsody

Cifra: Principal (violão e guitarra)
tom: E
Tune down 1/2 step

Intro :
(orchestra arranged for guitar)

|-----------------12----10---------------------------------------------------
|------------12------14---------------------------------13-12-12-------------
|-12------12---------------14--12-11-----------------12----------11-12-11----
|----12------------------------------14-12-14-----14----------------------14-
|---------------------------------------------14-----------------------------
|----------------------------------------------------------------------------

                                                                      h  po
--------------------12----10-----------------------------12-15-14-14-14-15-14-
---------------12------14--------------------12-13----13----------------------
-11-12------12---------------14--12-111---14-------14-------------------------
-------12---------------------------------------------------------------------
------------------------------------------------------------------------------
------------------------------------------------------------------------------

-12-----------------------|
----12--15~~--16~~--18~~--|
--------------------------|
--------------------------|
--------------------------|
--------------------------|

Gtr 1 : (Palm muted)

|----------------------------------------------------------------------------
|----------------------------------------------------------------------------
|----------------------------------------------------------------------------
|-8-------------------------------5---------------5---------------6~~--------
|-6-6-6-6-6-6-6-6-9---------------3-3-3-3-3-3-3-3-3-3-3-3-3-3-3-3-4~~--8~~---
|-----------------7-7-7-7-7-7-7-7--------------------------------------6~~---

---------------------|
---------------------|
---------------------|
------4~~--6~~--8~~--|
-6~~--2~~--4~~--6~~--|
-4~~-----------------|

Verse :

  Wise and mighty you are force of the earth
                                            (Palm muted)
|-------------------------------------------------------------------------|
|-------------------------------------------------------------------------|
|-------------------------------------------------------------------------|
|-6~~-------------------------------------------8-------8-------8-------8-|
|-4~~---------------------------------------6-6-6-6-6-6-6-6-6-6-6-6-6-6-6-|
|-------------------------------------------------------------------------|

  Fierce becomes the sea     at your command
                                            (Palm muted)
|-------------------------------------------------------------------------|
|-------------------------------------------------------------------------|
|-------------------------------------------------------------------------|
|-6~~-------------------------------------------8-------8-------8-------8-|
|-4~~---------------------------------------6-6-6-6-6-6-6-6-6-6-6-6-6-6-6-|
|-------------------------------------------------------------------------|

Prechorus :

  Winds of the south    Winds of the north    Let me hear your call

|-------------------------------------------------------------------|
|-------------------------------------------------------------------|
|-------------------------------------------------------------------|
|-------------------X-X-6~~---------------X-X-4~~-------------------|
|-4~~---------------X-X-4~~---------------X-X-2~~----------X-X-7~~--|
|-2~~------------------------------------------------------X-X-5~~--|

  Blow on my heart    Filling my soul     Give me the force of the storm
  (Palm muted)
|-------------------------------------------------------------------------|
|-------------------------------------------------------------------------|
|-------------------------------------------------------------------------|
|-------------------------------------------------------------------------|
|---------------------2-2-2-2-2-2-2-2-2-2---------------------------------|
|-3-3-3-3-3-3-3-3-3-3---------------------2-2-2-2-2-2-2-2-2-2-2-2-2-2-2-2-|

Chorus :

     Riding  the holy winds    Winds of    eternity         I'll fight you
     (Palm muted)
|-------------------------------------------------------------------------
|-------------------------------------------------------------------------
|-------------------------------------------------------------------------
|-5~-7-------------------------------------7-----------4-5~-5-------------
|-3~-5-5-5-5-5-5-7-------------8-----------5-5-5-5-5-5-2-3~-3-3-3-3-3-3-3-
|----------------5-5-5-5-5-5-5-6-6-6-6-6-6--------------------------------

forever     Nightmares  sons

------------------------------|
------------------------------|
------------------------------|
-3-----------------------7----|
-1-1-1-1-1-1-5-----------5----|
-------------3-3-3-3-3-3------|


Interlude :
                       (Palm muted)
|----------------------------------------------------------------------
|----------------------------------------------------------------------
|----------------------------------------------------------------------
|--------9-------------7-7-7-7-7-7-7-7-----------------9-9-9-9-9-9-9-9-
|-7------7------11-----5-5-5-5-5-5-5-5-7-7-7-7-7-7-7-7-7-7-7-7-7-7-7-7-
|-5-------------9----------------------5-5-5-5-5-5-5-5-----------------

---------------------------------------------------------------------------
---------------------------------------------------------------------------
---------------------------------------------------------------------------
---------------------------------------------------------------------------
-10-10-10-10-10-10-10-10-44444444444444444----------------6666666666666666-
-8--8--8--8--8--8--8--8-------------------4444444444444444-----------------

----------------------------|
----------------------------|
----------------------------|
----------------------------|
-----------------8~~--/6~~--|
-66666666666666666~~--------|

Orchestra interlude then :

Gtr 1:
|---------------12----10----------------------------------------------------
|-----------12-----14-------------------------------13-12-12----------------
|-12-----12--------------14-12-11----------------12----------11-12-11----11-
|----12---------------------------14-12-14----14----------------------14----
|------------------------------------------14-------------------------------
|---------------------------------------------------------------------------
                                                          
                                                          
|Gtr 2: (Palm muted)                                                        

|---------------------------------------------------------------------------
|---------------------------------------------------------------------------
|---------------------------------------------------------------------------
|---------------------7-7-7-7-7-7-7-7-7-------------------4-4-4-4-4-4-4-4-4-
|-5-5-5-5-5-5-5-5-5-5-5-5-5-5-5-5-5-5-5-7-7-7-7-7-7-7-7-7-2-2-2-2-2-2-2-2-2-
|-3-3-3-3-3-3-3-3-3-3-------------------5-5-5-5-5-5-5-5-5-------------------

Gtr 1:
|-------------12----10------------------------12-15-14-14-12---------------
|----------12----14----------------12-13---13----------------12-15~-16-18~-
|-12----12-------------14-12-11-14------14---------------------------------
|----12--------------------------------------------------------------------
|--------------------------------------------------------------------------
|--------------------------------------------------------------------------
                                         
                                        

|Gtr 2:  (Palm muted)
|--------------------------------------------------------------------------
|--------------------------------------------------------------------------
|--------------------------------------------------------------------------
|-------------------7-7-7-7-7-7-7-7-7-7-------------------9-9-9-9-9-9-9-9--
|-5-5-5-5-5-5-5-5-5-5-5-5-5-5-5-5-5-5-5-9-9-9-9-9-9-9-9-9-7-7-7-7-7-7-7-7--
|-3-3-3-3-3-3-3-3-3---------------------7-7-7-7-7-7-7-7-7------------------
Compositor não encontrado.
Colaboração e revisão:
  • wesley sousa
1.223 exibições
    • ½ Tom
    • A
    • Bb
    • B
    • C
    • Db
    • D
    • Eb
    • E
    • F
    • F#
    • G
    • Ab
  • Adicionar à lista

    0 comentários

    Ver todos os comentários

    Conseguiu tocar?

    0 Tocaram 0 Ainda não

    Grave um vídeo tocando Riding The Winds Of Eternity e nos envie!

    00:00 / 00:00
    Outros vídeos desta música
    Repetir Qualidade Automático
    Outros vídeos desta música
    00:00 / 00:00
    Automático

    Cifra Club Pro

    Aproveite o Cifra Club com benefícios exclusivos e sem anúncios
    Cifra Club Pro
    Aproveite o Cifra Club com benefícios exclusivos e sem anúncios
    OK