Cifra Club

Aprenda

Dawn of Victory

Rhapsody

Cifra: Principal (violão e guitarra)
Tom: G
Normal Tuning!!

Intro 
E-(Riff-1:)-------------------------------------------------------------------------|
B-----------------------------------------------------------------------------------|
G*----------------------------------------------------------------------------------|
D*-------------------------------------------------5-5-5-5--3-----------------------|
A---3-3-3-3-/-6-6-6-6-/-5-5-5-5-\-3-3-3-3--6-6-6-6------------6-5-3-----------------|
E--------------------------------------------------------------------3-3-3-3-/-5-5-5|

x2
E------------------------------------(end-Riff-1)-----------------------------------|
B-------------------------------------------------|---------------------------------|
G------------------------------------------------*|*--------------------------------|
D------------------------------------------------*|*--------------------------------|
A----------------------------------3-3-3--5-3-----|---3-3-3-3-/-5-5-5-5-/-6-6-6-6-\-|
E-5-5-/-6-6-6-6-\-3-3-3-3--6-6-6-6------------6~------------------------------------|
pm...............................
____________
|1.3.
E----------------------------------------------------------------------|------------|
B----------------------------------------------------------------------|------------|
G----------------------------------------------------------------------|------------|
D-------------------5-5-3----------------------------------------------|------------|
A-3-3-3-3--6-6-6-6--------6-5-3----------------------------------------|---------3-3|
E--------------------------------3-3-3-3-/-5-5-5-5-/-6-6-6-6-\-3-3-3-3-|-6-6-6-6----|
.................| pm pm..............................................| pm
_____________ __________________
|2.4. |
E-------------|------------------||-------------------------------------------------|
B-------------|------------------||-------------------------------------------------|
G------------*|-(Gtr.2:)---------||-------------------------------------------------|
D------------*|--4p2-4-5-/-7~----||-------------------------------------------------|
A-3--5-3------|-(Gtr.1:)---------||--6-10-8-10-6-10-8-10----------------------/-3-6-|
E--------6~---|--2p0-2-3-/-5~----||----------------------\-6-10-8-10-6-10-8-6-------|
pm..............................................

E-----------------------------------------------------------------------------------|
B-----------------------------------------------------------------------------------|
G--------------------------------------------------------------------3-2------------|
D------------------------------------------------------------------------5-4--------|
A-5-6-3-6-5-6----------------------------------------------------------------6-5-3-5|
E-------------\-3-6-5-6-3-6-5-3-/-4-8-6-8-4-8-6-8-\-3-6-5-6-3-6-5-6-----------------|
...................................................................................|

(end Intro) Verse 1
E-----------------------------||----------------------------------------------------|
B-----------------------------||----------------------------------------------------|
G-----------------------------||--5-------------------------------------------------|
D-----------------------------||--5-------------------------------------------------|
A-----------------------------||--3-3-3-3-3-3-3-3-3-3-3-3-3-3-3-3-3-3-3-3-3-3-3-3-3-|
E--3~-6~-\-2~-5~--3~~--/-15\--||----------------------------------------------------|
pm...............................................

E-----------------------------------------------------------------------------------|
B-----------------------------------------------------------------------------------|
G---------------8-----------------5-------------------------------------------------|
D---------------8---8--\-5---6~---5-------------------------------------------------|
A-3-3-3-3-3-3---6---8--\-5---6~---3-3-3-3-3-3-3-3-3-3-3-3-3-3-3-3-3-3-3-3-3-3-3-3-3-|
E-------------------6--\-3---4~-----------------------------------------------------|
............| pm...............................................

Verse 2
E-----------------------------------------------------------------------------------|
B------------------------------------------------------------------|----------------|
G-----------8------------------------------------------------------|-------5--------|
D-----------8---8--\-5---6~---5---------------3----------------5\--|-------5--------|
A-3-3-3-3---6---8--\-5---6~---5-----------6---------6-----5----5\--|-------3-3-3-3-3|
E---------------6--\-3---4~---3-3-3-3-3-3---3---3-3---3-3---3--3\-----15\-----------|
........| pm............................| pm......

E-----------------------------------------------------------------------------------|
B-----------------------------------------------------------------------------------|
G-------------------------------------------------------8-----------------5---------|
D-------------------------------------------------------8---8--\-5---6~---5---------|
A-3-3-3-3-3-3-3-3-3-3-3-3-3-3-3-3-3-3-3-3-3-3-3-3-3-3---6---8--\-5---6~---3-3-3-3-3-|
E-----------------------------------------------------------6--\-3---4~-------------|
....................................................| pm.......

E-----------------------------------------------------------------------------------|
B-----------------------------------------------------------------------------------|
G-------------------------------------------------------8---------------------------|
D-------------------------------------------------------8--8--\-5---6~--------------|
A-3-3-3-3-3-3-3-3-3-3-3-3-3-3-3-3-3-3-3-3-3-3-3-3-3-3---6--8--\-5---6~--5-----6-----|
E----------------------------------------------------------6--\-3---4~----3-3---3-3-|
....................................................| pm...........

Chorus
E-----------------------------------------------------------------------------------|
B------------------------|----------------------------------------------------------|
G------------------------|--5-------5-\-3~------------------------------------------|
D-----5-----3--------5\--|--5---5---5-\-3~------------------------------------------|
A-5---------------6--5\--|--3---5---3-\-1~------------------------------------------|
E---3---3-3---3-3----3\---------3-----------1--1-1-1-1--1-1-1-1--1-1-1-1-1-1-1-1-1-1|
................| pm.......................................

E-----------------------------------------------------------------------------------|
B--------------------------------------------------------------------------|--------|
G--------------------------------------------/--5~----5--------------------|-Riff-1-|
D--------------------------------------------/--5~----5---6---6--/--8---8--|--(x2)--|
A--------------------------------------------/--3~----3---6---6--/--8---8--|--------|
E-1-1--1-1-1-1--1-1-1-1--1-1-1-1-1-1-1-1-1-1--------------4---4--/--6---6-----------|
..........................................|

E-----------------------------------------------------------------------------------|
B-----------------------------------------------------------------------------------|
G*----------------------------------------------------------------------------------|
D*--------------------------------------------------5-5-3---------------------------|
A---3-3-3-3-/-5-5-5-5-/-6-6-6-6-\-3-3-3-3--6-6-6-6--------6-5-3---------------------|
E----------------------------------------------------------------3-3-3-3-/-5-5-5-5-/|
pm..............................................| pm pm...................
______________________ ________________
|1. |2. |
E-------------------|----------------------|----------------||----------------------|
B-------------------|----------------------|----------------||--Verse-3--|----------|
G-------------------|---------------------*|-(Gtr.2)--------||---with----|--Chorus--|
D-------------------|---------------------*|--4p2-4-5-/-7~--||--Verse-1--|----------|
A-------------------|----------3-3-5-3-----|-(Gtr.1)--------||---Riff----|----------|
E-6-6-6-6-\-3-3-3-3-|-6-6-6-6----------6~--|--2p0-2-3-/-5~--||----------------------|
............................| pm

Guitar Solo 1
E------------15-------20p15----------15-------/16--------13-------15----------------|
B---16----------16----------16----16----16--------18--------15-------16----16-------|
G*-----17----------17----------17----------17--------17--------15-------17----17----|
D*--------17---------------------------------------------------------------------17-|
A-----------------------------------------------------------------------------------|
E-----------------------------------------------------------------------------------|

x2 Guitar Sol
E-------/16-------13-------15-----------------/15-13-11--------------------11-------|
B----16-----18-------15-------16----16------------------15-13-12-13~---|------13-12-|
G-17-----------17-------15-------17----17-----------------------------*|*-----------|
D-----------------------------------------17--------------------------*|*-----------|
A----------------------------------------------------------------------|------------|
E-----------------------------------------------------------------------------------|

o 2
E----15-----------15----------20-----------16----------19----------\-15----------20-|
B-13----13-12-13-----16-15-16----16-15-16-----18-17-18----18-17-18------16-15-16----|
G-----------------------------------------------------------------------------------|
D-----------------------------------------------------------------------------------|
A-----------------------------------------------------------------------------------|
E-----------------------------------------------------------------------------------|

E---------\11----------15-----------15----------20-----------16----------19---------|
B16-15-16-----13-12-13----13-12-13-----16-15-16----16-15-16-----18-17-18----18-17-18|
G-----------------------------------------------------------------------------------|
D-----------------------------------------------------------------------------------|
A-----------------------------------------------------------------------------------|
E-----------------------------------------------------------------------------------|
__________ ____________
|1. |2. | Guitar Solo 3
E-/20--15-|----------|----15~-----||---20-20--18--15-16-18--15~--16--16-18-20--20-18|
B---------|-16-------|-16---------||------------------------------------------------|
G---------|----17~--*|------------||*-----------------------------------------------|
D---------|---------*|------------||*-----------------------------------------------|
A---------|----------|------------||------------------------------------------------|
E---------|----------|------------||------------------------------------------------|

x2
E-16------------13-13---------------------------------------------------------------|
B----20-18-16~---------16-15-13-15-16~--16--15-13\12-15-13~---|---------------------|
G------------------------------------------------------------*|----Guitar-Solo-1----|
D------------------------------------------------------------*|---------------------|
A-------------------------------------------------------------|---------------------|
E-----------------------------------------------------------------------------------|

E--16p15p13-----------------------------------------------------15b(16)~--r15~~~----|
B-----------13p12----------------12-------------------------------------------------|
G-----------------13p12p10h12h13----13p12p10--------------------12b(13)~--r12~~~----|
D--------------------------------------------13p12p10--------12---------------------|
A---------------------------------------------------------14------------------------|
E-----------------------------------------------------\15---------------------------|

x2
E-----------------------------------------------------------------------------------|
B----------------------------------------------------|------------------------------|
G*--5--------------8-------\--5--------------8------*|------------------------------|
D*--5----5----6----8---8---\--5----5----6----8---8--*|------------------5-----3-----|
A---3----5----6----6---8---\--3----5----6----6---8---|--5-----6-----5---------------|
E--------3----4--------6-----------3----4--------6--------3-3---3-3---3---3-3---3-3-|
pm...........................

Chorus (2)
E-----------------------------------------------------------------------------------|
B-----------|-----------------------------------------------------------------------|
G-----------|--5-------5-\-3--------------------------------------------------------|
D------5\---|--5---5---5-\-3--------------------------------------------------------|
A-6----5\---|--3---5---3-\-1--------------------------------------------------------|
E---5--3\----------3----------1--1-1-1-1--1-1-1-1---1-1-1-1-1-1-1-1-1-1--1-1-1-1--1-|
....| pm.....................................................

E-----------------------------------------------------------------------------------|
B-----------------------------------------------------------------------------------|
G--------------------------/--5----5----5-------------------------------------------|
D--------------------------/--5----5----5--\--6----6----8----8----------------------|
A--------------------------/--3----3----3--\--6----6----8----8----------------------|
E-1-1-1--1-1-1-1-1-1-1-1-1-----------------\--4----4----6----6--\1--1-1-1-1--1-1-1-1|
.........................| pm...................

E-----------------------------------------------------------------------------------|
B-----------------------------------------------------------------------------------|
G-----------------------------------------------------------/--5----5---------------|
D-----------------------------------------------------------/--5----5---\---6----/-8|
A-----------------------------------------------------------/--3----3---\---6----/-8|
E-1-1-1-1-1-1-1-1-1-1--1-1-1-1--1-1-1-1--1-1-1-1-1-1-1-1-1--------------\---4----/-6|
.........................................................|

E---------------------||
B---------------------||
G---5~~--------5-\----|| end
D---5~~--------5-\----||
A---3~~--------3-\----||
E---------------------||

--------------------------------------------------------------------------------------

Rhythm Guitar during Guitar Solo 1 x2
E-----------------------------------------------------||
B-----------------------------------------------------||
G*---5\----5\----5\----5\----5\----5\----4\----5~~---*|| end
D*---5\----5\----3\----5\----3\----5\----5\----5~~---*||
A----3\----3\----------3\----------3\----2\----3~~----||
E-----------------------------------------------------||

Rhythm Guitar during Guitar Solo 2
E-----------------------------------------------------------------------------------|
B-----------------------------------------------------------------------------------|
G*----------------------------------------------------------------------------------|
D*----------------------------------------------------------------------------------|
A---3-3-3-3-3-3-/-6-6-6-6-6-6-\-5-5-5-5-5-5-\-3-3-3-3-3-3-3-3-3-3-3-3-/-6-6-6-6-6-6-|
E-----------------------------------------------------------------------------------|
pm...............................................................................

x2
E-----------------------------||
B-----------------------------||
G----------------------------*|| end
D----------------------------*||
A-8-8-8-\-5-5-5---------------||
E---------------\8--8--8--8---||
...........................|

Rhythm Guitar during Guitar Solo 3 x2
E-----------------------------------------------|| 
B-----------------------------------------------|| 
G*-------8--/--10----5----10----5---------5~~--*|| end
D*--6----8--/--10----5----10----5----5----5~~--*|| 
A---6----6--/---8----3----8-----3----5----3~~---|| 
E---4--------------------------------3----------|| 

--------------------------------------------------------------------------------------

=======================
=TABLATURE EXPLANATION=
=======================

A.H. = Artificial Harmonic

pm..| = Palm mute

h = hammer on

p = pull off

/ = slide up

\ = slide down

~ = Vibrato

b() = Bend

x\ = Pick Slide

--------
--------
---12--- = Tremolo pick
----/---
----/---
----/---

---.---
--12--- = Staccato
-------
-------
-------

| |
| |
|* *| = repeat from * to *
|* *| 
| |


LYRICS:
**************************************************************************

Fire is raging on the battlefield
While Arwald is fighting the war of the kings
The army of Dargor, the thunder, the storm...
So people are calling the brave and his sword
No time left to save the wise throne!

Shades of a past not so far to forget...
The rise of the demons from their bloody hell!
So come mighty warrior to light the last hope
For Tharos the dragon and your cosmic soul...
Now handle your emerald sword!

FOR ANCELOT, THE ANCIENT CROSS OF WAR
FOR THE HOLY TOWN OF GODS
GLORIA, GLORIA PERPETUA
IN THIS DAWN OF VICTORY

The ride of the dead and their practice of pain
Is pounding in him as a terrific quake
You're closer and closer now follow their smell
With your holy armour the steel in your hand
Fly angel of bloody revenge!

FOR ANCELOT, THE ANCIENT CROSS OF WAR
FOR THE HOLY TOWN OF GODS
GLORIA, GLORIA PERPETUA
IN THIS DAWN OF VICTORY

Tragic and furious the clash of the steel of the gods
And so magic the power, the sword in his valorous hands
Oceans of fire and blasting the throne of the demons
And from the distant red skies the thunders are calling his name
The name of the master of pain!

FOR ANCELOT, THE ANCIENT CROSS OF WAR
FOR THE HOLY TOWN OF GODS
GLORIA, GLORIA PERPETUA
IN THIS DAWN OF VICTORY
GLORIA, GLORIA PERPETUA
IN THIS DAWN OF VICTORY

**************************************************************************
Composição de Luca Turilli
22.836 exibições
    • ½ Tom
    • A
    • Bb
    • B
    • C
    • Db
    • D
    • Eb
    • E
    • F
    • F#
    • G
    • Ab
  • Adicionar à lista

    0 comentários

    Mostrar mais comentários

    Conseguiu tocar?

    1 Tocaram 0 Ainda não

    Grave um vídeo tocando Dawn of Victory e mande pra gente!

    00:00 / 00:00
    outros vídeos desta música
    repetir qualidade Automático
    Outros vídeos desta música
    00:00 / 00:00
    Automático

    Cifra Club Pro

    Aproveite o Cifra Club com benefícios exclusivos e sem anúncios
    7 dias grátis
    Cifra Club Pro
    Aproveite o Cifra Club com benefícios exclusivos e sem anúncios
    7 dias grátis
    OK