Cifra Club

Aprenda

2112 - Overture

Rush

Tab de baixo: Principal
"2112" I - Overture
===================

                                                                       
    e   q H     Q e e     w   q h e e     q Q e     q h+e e   q h+e e  
+-----+-----+---------+-----+---------+---------+-----------+---------+
|4:---|---R-|5:-R-----|4:---|---R-----|3:---R---|4:---R-----|---R-----|
|4:---|-----|8:---3---|4:-5-|-3---0-0-|4:-0-----|4:-------3-|---------|
+---0-+-5---+-------3-+-----+---------+-------0-+---5-------+-3-----0-+

                                                                       
    q h+e e e   q e e q e     q h+e e   q h+e e     e h+e e e     H e  
+-------------+-----------+-----------+---------+-------------+-------+
|9:---R-------|-----------|4:---R-----|---R-----|9:---R-------|7:-----|
|8:-------3---|-5-3---5---|4:-------3-|---------|8:-------3---|8:-5---|
+---5-------3-+-----3---0-+---5-------+-3-----0-+---5-------3-+-----0-+

                                                                           
    q h+e e   q h+e e     q e e q e e e     q e e q e     e e e e e e e e  
+-----------+---------+-----------------+-------------+---4-----------4---+
|4:---R-----|---R-----|9:---R-----R-----|7:-----------|4:---R-7-R-5-R---R-|
|4:-------3-|---------|8:-------5---3---|8:-5-3---5-5-|4:-----------------|
+---5-------+-3-----0-+---5---3-------3-+-------3-----+-------------------+

                                                                               
    Q e     w   +w   e e e e e e e e     Q e     w   +H e   e   w   w   w   w  
+-------+-----+----+-----------------+-------+-----+----------+---+---+---+---+
|2:-----|4:---|----|-5-R-7-R-5-R-4-R-|2:-----|4:---|--------R-|-R-|-R-|-R-|-R-|
|4:-5-0-|4:-5-|--5-|-----------------|4:-7-4-|4:---|----7\X---|---|---|---|---|
+-------+-----+----+-----------------+-------+---5-+--5-------+---+---+---+---+

                                                                     
  e e e e e e e e   e e e e e e e e   e e e e q e e   e e e e e q e  
+-----------------+-----------------+---------------+---------------+
|-----------------|-----------------|---------------|---------------|
|-2-1-2-1-2-1-2-0-|-------------5-4-|---------7-5-4-|-2-1-2-1-2-5-5-|
+-----------------+-3-2-3-2-3-2-----+-5-4-5-4-------+---------------+

                                                                     
  e e e e e e e e   e e e e e e e e   e e e e q e e   e e e e e q e  
+-----------------+-----------------+---------------+---------------+
|-----------------|-----------------|---------------|---------------|
|-2-1-2-1-2-1-2-0-|-------------5-4-|---------7-5-4-|-2-1-2-1-2-5-5-|
+-----------------+-3-2-3-2-3-2-----+-5-4-5-4-------+---------------+

                                                                      
  q q q e e   q q q e e   q q q e e   e e e e e e e e   +w   +w   +w  
+-----------+-----------+-----------+-----------------+----+----+----+
|-----------|-----------|-----------|-----------------|----|----|----|
|-2-2-2-2-0-|-------5-4-|-----7-5-4-|-2---------------|----|----|----|
+-----------+-3-3-3-----+-5-5-------+---0-2-3-5-3-0-5-+--5-+--5-+--5-+

                                                                        
  e e e e e e q   +w   +w   +w   e e e e e e q   +e e Q e q   +H s s e  
+---------------+----+----+----+---------------+------------+----------+
|---------------|----|----|----|---------------|--------7-7-|--7-7H9P7-|
|---------------|----|----|----|---------------|----4-4-----|----------|
+-0-2-3-5-3-0-5-+--5-+--5-+--5-+-0-2-3-5-3-0-5-+--5---------+----------+

                                                                               
  +H s s e   e e e e e e q   +e e Q e q   +H s s e   +H s s e     e e e e e e  
+----------+---------------+------------+----------+----------+---------------+
|--7-7H9P7-|---------------|--------7-7-|--7-7H9P7-|--7-7H9P7-|3:-------------|
|----------|---------------|----4-4-----|----------|----------|4:-------------|
+----------+-0-2-3-5-3-0-5-+--5---------+----------+----------+---0-2-3-5-3-0-+

                                                                               
    q e e q e e   H q   h e E E   h e E E   h e E E   E E e e e q     h e E E  
+---------------+-----+---------+---------+---------+---------------+---------+
|4:---R-----R-9-|-9-R-|---R-----|---R-----|---R-----|---------R-9\X-|---R-----|
|4:-2---6-6-----|-----|-2---2-0-|---------|---------|-5-4-0-2-------|-2---2-0-|
+---------------+-----+---------+-3---2-3-+-5---3-5-+---------------+---------+

                                                                         
  h e E E   h e E E     E E e    e H e   +e H e   +e H+e   e Q q q    w  
+---------+---------+---------+--------+--------+--------+----------+---+
|---R-----|---R-----|2:-------|*---R---|----R---|----R---|-R-------*|---|
|---------|---------|4:-5-4-0-|*-2---2-|--2---2-|--2-----|---5---7-*|---|
+-3---2-3-+-5---3-5-+---------+--------+--------+--------+-----5----+-5-+

                                                                  
  h+Q e   h+Q e   e e e e E E e    h q e e   Q e e e e e   Q e h  
+-------+-------+---------------+----------+-------------+-------+
|-------|-------|-------R-------|*---2-----|-------------|-------|
|-3-3-5-|-------|---------3---3-|*-0---0-2-|-3-2-3-2-----|-------|
+-------+-1-1-1-+-1-1-1-----3---+----------+---------3-2-+-1-0-1-+

                                                                      
  e e q E E e 3  h q e e   Q e e e e e   h+e e e e   e e e e e e e e  
+--------------+---------+-------------+-----------+-----------------+
|-------------*|---2-----|-------------|-----------|-----------R---R-|
|-------3---3-*|-0---0-2-|-3-2-3-2-----|-----------|-------------3---|
+-1-0-1---3----+---------+---------3-2-+-1-1-1-1-1-+-1-1-1-1-1-------+

                                                             
  e s e e s e e e e   e s e e s e e e e   e s e e s e e e e  
+-------------------+-------------------+-------------------+
|-------------R---R-|-------------R---R-|-------------R---R-|
|-2-2-2-2-2-2---5---|-2-2-2-2-2-2-------|-2-2-2-2-2-2---5---|
+-------------------+---------------3---+-------------------+

                                                             
  e s e e s e e e e   e s e e s e e e e   e s e e s e e e e  
+-------------------+-------------------+-------------------+
|-------------R---R-|-------------R---R-|-------------R---R-|
|-2-2-2-2-2-2-------|-2-2-2-2-2-2---5---|-2-2-2-2-2-2-------|
+---------------3---+-------------------+---------------3---+

                                                                             
  e s e e s e e e e   e s e e s e e e e   e e s s e e e s s e   E E E E e e  
+-------------------+-------------------+---------------------+-------------+
|-------------R---R-|-------------------|-R---------R---------|-----------R-|
|-2-2-2-2-2-2---5---|-2-2-2-2-2-2-4-5-6-|---7-----7---5-----5-|-3-2-3-2-3---|
+-------------------+-------------------+-----7-7-------5-5---+-------------+

                                                                             
  e s e e s e e e e   e s e e s e e e e   e e s s e e e s s e   E E E E e e  
+-------------------+-------------------+---------------------+---------5-4-+
|-------------R---R-|-------------R---R-|-R---------R---------|-----5-4-----|
|-2-2-2-2-2-2---5---|-2-2-2-2-2-2-------|---7-----7---5-----5-|-3-2---------|
+-------------------+---------------3---+-----7-7-------5-5---+-------------+

                                                             
  e s e e s e e e e   e s e e s e e e e   e s e e s e e e e  
+-------------------+-------------------+-------------------+
|-------------R---R-|-------------R---R-|-------------R---R-|
|-2-2-2-2-2-2---5---|-2-2-2-2-2-2-------|-2-2-2-2-2-2---5---|
+-------------------+---------------3---+-------------------+

                                                                 
  e s e e s e e e e   s s s e e s e e e e   s s s e e s e e e e  
+-------------------+---------------------+---------------------+
|-------------R---R-|-------------------2-|---------------------|
|-2-2-2-2-2-2-------|-2-2-2-2-2-2-2-4-5---|-2-2-2-2-2-2-2-------|
+---------------3---+---------------------+---------------5-3-2-+

                                                                     
  s s s e e s e e e e     s s s e e s e e     h+Q e e     q e e q e  
+---------------------+-------------------+-----------+-------------+
|-------------------2-|3:-----------------|9:---------|7:-----------|
|-2-2-2-2-2-2-2-4-5---|4:-2-2-2-2-2-2-2-2-|8:-----3---|8:-5-3---5---|
+---------------------+-------------------+---3-----3-+-------3---3-+

                                                                        
    q s s s s q s s s s   q s s s s q s s s s   w   +H q   w   w   h+Q  
+-----------------------+---------------------+---+------+---+---+-----+
|4:---------------------|---------------------|---|----R-|-R-|-R-|-R-R-|
|4:---------------------|---------------------|---|------|---|---|-----|
+---0-0-0-0-0-0-0-0-0-0-+-0-0-0-0-0-0-0-0-0-0-+-0-+--0---+---+---+-----+
Composição de Geddy Lee / Kåre Christoffer Vestrheim / Neil Peart
Colaboração e revisão:
  • teilor barcelos
1.131 exibições

0 comentários

Mostrar mais comentários

Conseguiu tocar?

1 Tocaram 0 Ainda não

Grave um vídeo tocando 2112 - Overture e mande pra gente!

00:00 / 00:00
outros vídeos desta música
repetir qualidade Automático
Outros vídeos desta música
00:00 / 00:00
Automático

Cifra Club Pro

Aproveite o Cifra Club com benefícios exclusivos e sem anúncios
7 dias grátis
Cifra Club Pro
Aproveite o Cifra Club com benefícios exclusivos e sem anúncios
7 dias grátis
OK