Cifra Club

Aprenda

Not For Me (acoustic)

Slash

Cifra: Principal (violão e guitarra)
tom: C
Intro:

      D             Dm            C            Cm             Bb            Bbm
E|-2-3-2-------|-1----5------|-3-----------|----3--------|-1-----------|----1--------|
B|-3----3------|-3----6------|-5-6-5-------|-4--4--------|-3-4-3-------|-2--2--------|
G|-2-----2-----|-2----7------|-5----5------|-5--5--------|-3----3------|-3--3--------|
D|-0-----------|-0----7------|-5-----5-----|-5--5--------|-3-----3-----|-3--3--------|
A|-------------|-------------|-3-----------|-3-----------|-1-----------|-1-----------|
E|-------------|-------------|-x-----------|-------------|-x-----------|-------------|

      F             G
E|---1---------|---3---------|-------------|
B|---1---------|---3---------|-------------|
G|---2---------|---4---------|-------------|
D|---3---------|---5---------|---4---------|
A|---3---------|---5---------|----5--------|
E|---1---------|---3---------|-------------|

Verso Acústico

E|---------------|---------------|---------------|----------------------|
B|---------------|-------------0-|-1-------------|----------------------|
G|-0-------------|-2-----2-2-2-0-|-0-----0-0-0-0-|-------0----3---------|
D|-4-----4-4-5-4-|-3-----3-3-3-3-|-0h2---2-2-3-2-|-1-------0------------|
A|-5-----5-5-5-5-|-3-----3-------|-3-----3-3-3-3-|-1---1---1---1--1-0---|
E|---------------|-1-------------|---------------|--------------------3-|

Dirty Sunrise creeping in,
Broken bottles, gilled within, The room is black, The blinds are drawn

 I don't remember anything,
        What I've done, where I've been. Another night has come and gone

Refrão:
E|-2-----2-2-3-2-|----------------|---------------------|---------------------|
B|-3-----3-3-3-3-|-1--------------|-1-------------------|---------------------|
G|-2-----2-2-2-2-|-2------2-0-----|-0-------------------|------0----3---------|
D|---------------|-3----------3---|-0h2----3p2--2--0h2--|-1------0------------|
A|---------------|-3----3-------3-|-3------3----3--3----|-1--1---1----1-1-0---|
E|---------------|----------------|---------------------|-------------------3-|

   This is Not for Me, no....  4x

   Anymore

Verso Acústico

E|---------------|---------------|---------------|----------------------|
B|---------------|-------------0-|-1-------------|----------------------|
G|-0-------------|-2-----2-2-2-0-|-0-----0-0-0-0-|-------0----3---------|
D|-4-----4-4-5-4-|-3-----3-3-3-3-|-0h2---2-2-3-2-|-1-------0------------|
A|-5-----5-5-5-5-|-3-----3-------|-3-----3-3-3-3-|-1---1---1---1--1-0---|
E|---------------|-1-------------|---------------|--------------------3-|


"The devil smiles and laughs at me,
Says you'll be back, just wait and see,
You know I've heard this all before,

And I say,
You can keep your high life in the hills,
Your cocaine lies and whiskey thrills,
I don't need you anymore,

This is not for me, no,
This is not for me, no,
This life is not for me, no,
This is not for me, no,
Oh oh oh"

Bridge - Lead Guitar (Rhythm plays along in power chords)

     E5                B5                         F#5        PM
|-----------------|--------------------------|----------------------|
|------------1----|--------------------------|----------------------|
|---------0h2-2p0-|-0-------------------0----|----------------------|
|-3--3--3---------|-2----2-----3p2---0h2-2p0-|-0----0---------------|
|-3--3--3---------|-3----3---3-3---3---------|-2----2--------3p2--0-|
|-1--1--1---------|---------PM---------------|-3----3-----3-3---3---|

1st bridge ending              2nd Bridge Ending

|----3--------------|          |--3-----------|
|----3--------------|          |--3-----------|
|----3--------------|          |--3-----------|
|----5--------------|          |--3-----------|
|----6--------------|          |--5-----------|
|----3--------------|          |--6-----------|

Lyrics:
"The only thing that makes me whole again,
Is to stand right here before you in the sun, oh,
I'll keep running til the very end,
For the life I've lived is not the life I want."


Tocar a introdução de novo enquanto o violao base toca os acordes na 8ª

Solo continua, enquanto a base toca os mesmos acordes do refrão

Solo:

E|-------10---10-------------------------------|-------------------------------12b13-12-------------13-10-|
B|--------13~~--13-10--------------------------|----13-10------------------------------13-11~~-13b14------|
G|--12b14------------12b13-12-10--10--12b13r12-|-12------12-10---12b13-10-12-10---------------------------|
D|------------------------------12--12---------|---------------12-----------------------------------------|
A|---------------------------------------------|----------------------------------------------------------|
E|---------------------------------------------|----------------------------------------------------------|

E|-10--------------------|-15b16-15b16-15-13--13-15-13--15b1615b16b15b16r15-13-|
B|---13-10---------------|------------------15--------15-----------------------|
G|--------12b13r12-10----|-----------------------------------------------------|
D|-------------------12--|-----------------------------------------------------|
A|-----------------------|-----------------------------------------------------|
E|-----------------------|-----------------------------------------------------|

E|12b13-12-----12b13-12----------------13-----13----------|
B|--------13-13--------13-13-14b16-13b15--13b15--13b15r13-|
G|--------------------------------------------------------|
D|--------------------------------------------------------|
A|--------------------------------------------------------|
E|--------------------------------------------------------|

Verso Final

|-2-----------|-1------------|-0---------|------------------|
|-3-----------|-3------------|-1---------|------------------|
|-------------|--------------|-----------|-8--8-------------|
|-------------|--------------|-----------|-8--8-------------|
|-------------|--------------|-----------|-6--6-------------|
|-------------|--------------|-----------|-------6~--6-5-3--|

"Dirty sunrise creeping in,
Broken bottles, gilled within,
In a place I don't belong"

Tocar o refrão de novo 2x

tocar acordes do refrao e terminar com a transiçao padrão

E|----------------------|
B|----------------------|
G|----------------------|
D|--1--1---0---0--------|
A|--1--1---1---1--1-0---|
E|--------------------3-|

"Anymore yeah"

"You can keep your life, I don't want anymore,        yeah"

"I'm gonna leave it all behind yeah (2x)"

 "I don't want no more, don't want no more"

 "Yeah yeah yeah."
Colaboração e revisão:
  • Misael Dutra
  • Adenildo Dias
5.363 exibições
    • ½ Tom
    • A
    • Bb
    • B
    • C
    • Db
    • D
    • Eb
    • E
    • F
    • F#
    • G
    • Ab
  • Adicionar à lista

    0 comentários

    Ver todos os comentários

    Conseguiu tocar?

    1 Tocaram 0 Ainda não

    Grave um vídeo tocando Not For Me (acoustic) e nos envie!

    00:00 / 00:00
    outros vídeos desta música
    repetir qualidade Automático
    Outros vídeos desta música
    00:00 / 00:00
    Automático

    Cifra Club Pro

    Aproveite o Cifra Club com benefícios exclusivos e sem anúncios
    Cifra Club Pro
    Aproveite o Cifra Club com benefícios exclusivos e sem anúncios
    OK