Cifra Club

Killpop

Slipknot

Tab de baixo: Principal
exibições 637
Tuning: Drop B ( B-F#-B-E )


She's sticking needles in her skin... (00:25)
E |---------------------------------| 1x
B |---------------------------------|
F#|---------------------------------|
B |-2-2-2-2-2-2-2-2-2-2-2-2-2-2-2-2-|


But her peace of mind... (00:37)
E |--------------------------------------------------------------------------------------| 1x
B |--------------------------------------------------------------------------------------|
F#|--------------------------------------------------------------------------------------|
B |-2/-10-10-10-10-9-9-9-9-10-10-10-12-9-9-9-9--2-0-2-4-2-2-2-2-2-2--2-0-2-4-2-2-2-2-2-2-|


Will she ever find one million of a kind?... (00:55)
E |--------------------------------------------| 1x
B |--------------------------------------------|
F#|--------------------------------------------|
B |-2/-10-10-10-10-9-9-9-9-10-10-10-12-9-9-9-9-|


It's cold and lonely... (01:02)
E |------------------------------------------------------------------------------| 1x
B |------------------------------------------------------------------------------|
F#|------------------------------------------------------------------------------|
B |-2-0-2-4-5-4-2-4--2-0-2-5-7-5-4-5--2-0-2-4-5-4-2-4--2-0-2-4-5-4-2-4--0-2--5-4-|


Oh, she's beautiful... (01:16)
E |---------------------------------------------------------| 1x
B |---------------------------------------------------------|
F#|---------------------------------------------------------|
B |-2-2-2-2-2-2-2-2-2-2-2-2-2-2-2-2-0-0-0-0-0-0-0-0-5-4-5-4-|


Oh, I'm not insane... (01:22)
E |---------------------------------------------------------| 1x
B |---------------------------------------------------------|
F#|---------------------------------------------------------|
B |-2-2-2-2-2-2-2-2-2-2-2-2-2-2-2-2-0-0-0-0-0-0-0-0-8-7-5-4-|


Maybe I should let her go... (01:27)
E |-----------------------------------------------------------------|
B |-----------------------------------------------------------------|
F#|-----------------------------------------------------------------| 
B |-2-2-2-2-2-2-2-2-2-2-2-2-2-2-2-2-5-5-5-5-4-4-4-4-4-4-4-4-4-4-4-4-|  
                                                                        1x
E |-----------------------------------------------------------------|  
B |-----------------------------------------------------------------| 
F#|-3-3-3-3-2-2-2-2-2-2-2-2-2-2-2-2-3-3-3-3-2-2-2-2-2-2-2-2-2-2-2-2-|
B |-----------------------------------------------------------------|


How can I just let her go? (01:39)
E |-----------------------------------------------------------------|
B |-----------------------------------------------------------------|
F#|-----------------------------------------------------------------| 
B |-2-2-2-2-2-2-2-2-2-2-2-2-2-2-2-2-5-5-5-5-7-4-4-4-4-4-4-4-4-4-4-4-|  
                                                                        1x
E |-----------------------------------------------------------------| 
B |-----------------------------------------------------------------| 
F#|-3-3-3-3-2-2-2-2-2-2-2-2-2-2-2-2-3-3-3-3-2-2-2-2-2-2-2-2-2-2-2-2-|
B |-----------------------------------------------------------------|


(01:50)
E |-------------------| 1x
B |-------------------|
F#|-2-3-2-0-2-0-------|
B |-------------5-4-2-|


She's drowning in herself again... (01:57)
E |---------------------------------| 1x
B |---------------------------------|
F#|---------------------------------|
B |-2-2-2-2-2-2-2-2-2-2-2-2-2-2-2-2-|


She can feel it's right... (02:09)
E |-----------------------------------------| 1x
B |-----------------------------------------|
F#|-----------------------------------------|
B |-10-10-10-10-9-9-9-9-10-10-10-12-9-9-9-9-|


She smiles and answers... (02:15)
E |---------------------------------------------------------------------------| 1x
B |---------------------------------------------------------------------------|
F#|---------------------------------------------------------------------------|
B |-2-0-2-0-5-4-2-0-2-0-2-0-5-4-2-0-2-0-2-0-5-4-2-0-2-0-2-0-5-4-2-0--8-7--5-4-|


Oh, so volatile... (02:29)
E |---------------------------------------------------------| 1x
B |---------------------------------------------------------|
F#|---------------------------------------------------------|
B |-2-2-2-2-2-2-2-2-2-2-2-2-2-2-2-2-0-0-0-0-0-0-0-0-5-4-5-4-|


Oh, I need the pain... (02:35)
E |---------------------------------------------------------| 1x
B |---------------------------------------------------------|
F#|---------------------------------------------------------|
B |-2-2-2-2-2-2-2-2-2-2-2-2-2-2-2-2-0-0-0-0-0-0-0-0-8-7-5-4-|


Maybe I should let her go... (02:41)
E |-----------------------------------------------------------------|
B |-----------------------------------------------------------------|
F#|-----------------------------------------------------------------| 
B |-2-2-2-2-2-2-2-2-2-2-2-2-2-2-2-2-5-5-5-5-4-4-4-4-4-4-4-4-4-4-4-4-|  
                                                                        1x
E |-----------------------------------------------------------------|  
B |-----------------------------------------------------------------| 
F#|-3-3-3-3-2-2-2-2-2-2-2-2-2-2-2-2-3-3-3-3-2-2-2-2-2-2-2-2-2-2-2-2-|
B |-----------------------------------------------------------------|


How can I just let her go? (02:53)
E |-------------------------------------------------------------------------|
B |-------------------------------------------------------------------------|
F#|-------------------------------------------------------------------------|
B |-2-2-2-2-2-2-2-2-2-2-2-2-2-2-2-2-5-5-5-5-7-4-4-4-4-4-4-4-4-4-4-4---------|  
                                                                               1x
E |-------------------------------------------------------------------------|   
B |-------------------------------------------------------------------------| 
F#|-10-10-10-10-9-9-9-9-9-9-9-9-9-9-9-9-10-10-10-10-9-9-9-9-9-9-9-9-9-9-9-9-|
B |-------------------------------------------------------------------------|


(03:03)
E |-------------------------------------------------------------------------| 1x
B |-------------------------------------------------------------------------|
F#|-------------------------------------------------------------------------|
B |-9h10p9h10p9h10p9h10p9h10p9h10p9h10p9h10p9h10p9h10p9h10p9h10p9h10p9h10p9-|


(03:09)
E |---------------------------------| until the end / até o fim
B |---------------------------------|
F#|-----------------2h3-------------|
B |-2-0-2-4-5-4-2-4-----2-4-5-4-2-4-|


************************************

| h   Hammer-on
| p   Pull-off
| /   Slide up

************************************
Colaboração e revisão:
  • Walter Brow

0 comentários

    mostrar mais comentários

    Conseguiu tocar?

    2tocaram0ainda não

    Grave um vídeo tocando Killpop e mande pra gente!

    00:00 / 00:00
    outros vídeos desta música
    repetirqualidadeautomática
    Outro vídeos desta música
      00:00 / 00:00
      automática
      OK