Cifra Club

Carress Me Down

Sublime

Tab de baixo: Principal
exibições 555
Intro
G|------------------------------------------------------------------|
D|------------------------------------------------------------------|
A|--------------------------54--------------------------------------| 3X's
E|-----4455---4455--------------------------------------------------|

G|-------------------------------------------------------------------------|
D|-------------------------------------------------------------------------|
A|--------------------5-------------------------7---5----------------------|
E|-------5---5---5--------5------5----5----5-------------------------------|
Verse/Chorus
G|-------------------------------------------------------------------------|
D|-------------------------------------------------------------------------|
A|-------------------------5554444---------------777777555555--------------|
E|-------------45555555----------------5555555-----------------------------|
switches to
G|------------------------------------------77776666----------------999777-|
D|--------------------------6777777---------------------677777-------------|
A|-------------------------------------------------------------------------|
E|-------------------------------------------------------------------------|
then back to

G|-------------------------------------------------------------------------|
D|-------------------------------------------------------------------------|
A|-------------------------5554444---------------777777555555--------------|
E|-------------45555555----------------5555555-----------------------------|
play this throughout the whole verse and chorus parts switching back and forth....






then back to this before the last verse
G|------------------------------------------------------------------|
D|------------------------------------------------------------------|
A|--------------------------54--------------------------------------| 3X's
E|-----4455---4455--------------------------------------------------|

G|-------------------------------------------------------------------------|
D|-------------------------------------------------------------------------|
A|--------------------5-------------------------7---5----------------------|
E|-------5---5---5--------5------5----5----5-------------------------------|
ending verse is same as other two

0 comentários

    mostrar mais comentários

    Conseguiu tocar?

    0tocaram0ainda não

    Grave um vídeo tocando Carress Me Down e mande pra gente!

    00:00 / 00:00
    outros vídeos desta música
    repetirqualidadeautomática
    Outro vídeos desta música
      00:00 / 00:00
      automática
      OK