Cifra Club

Come Together

The Beatles

Cifra: Studio (violão e guitarra)
tom: C
  
Intro:                               Guitarra Clean

E|----------------|----------------|----------------|----------------|  
B|----------------|----------------|----------------|----------------|  
G|-------------10-|-------------10-|-------------10-|-------------10-|  
D|-------------10-|-------------10-|-------------10-|-------------10-|  
A|-------10h12----|-------10h12----|-------10h12----|-------10h12----|  
E|-10-10----------|-10-10----------|-10-10----------|-10-10----------|  

Verse:  
E|------------------|------------------|-----------------|---|  
B|------------------|------------------|-----------------|---|  
G|------------------|------------------|-----------------|---|  
D|--7-7-9-9-7-7-9-9-|------------------|-----------------|---|  
A|--5-5-5-5-5-5-5-5-|--7-7-9-9-7-7-9-9-|-7-7-9-9-7-7-9-9-|-5-|  
E|------------------|--5-5-5-5-5-5-5-5-|-5-5-5-5-5-5-5-5-|-3-|  

Solo 1:  
E|-15b17-15b17-15b17r15-13-15b17-15b17-15b17-15b17r15-13----------|  
B|----------------------------------------------------------------|  
G|----------------------------------------------------------------|  
D|----------------------------------------------------------------|  
A|----------------------------------------------------------------|  
E|----------------------------------------------------------------|  

E|------------------------------15b17--|-------------------Refrão-|  
B|----15b17--15b17-15b17r15-13---------|-OverDrive----------------|  
G|-------------------------------------|--------------------------|  
D|-------------------------------------|-4-4-4-4-4-4-4-4-5-5-5-5-7|  
A|-------------------------------------|-2-2-2-2-2-2-0-0-5-5-5-5-7|    
E|-------------------------------------|-----------------3-3-3-3-5|  

Fim Solo:  
E|--------13b15-13b15r13-10---------------------------------------|  
B|--13b15--------------------13b15----------------13b15-----------|  
G|---------------------------------10-12b14r12-10-----------------|  
D|----------------------------------------------------------------|  
A|----------------------------------------------------------------|  
E|----------------------------------------------------------------|  

E|----10-13b15r13-10------------------------15b17-15b17-15b17r15--|  
B|--------------------13b15--10-13b15r13-10-----------------------|  
G|----------------------------------------------------------------|  
D|----------------------------------------------------------------|  
A|----------------------------------------------------------------|  
E|----------------------------------------------------------------|  

E|-13-15b17-17-20b22r20--17-20b22-17-22r20--17--20b22-13--15b17r15|  
B|----------------------------------------------------------------|  
G|----------------------------------------------------------------|  
D|----------------------------------------------------------------|  
A|----------------------------------------------------------------|  
E|----------------------------------------------------------------|  

E|--13--15b17-----------------13b15-13b15-13b15r13--10------------|  
B|-------------10-12b14r12-10----------------------------13b15----|  
G|----------------------------------------------------------------|  
D|----------------------------------------------------------------|  
A|----------------------------------------------------------------|  
E|----------------------------------------------------------------|
Composição de John Lennon / Paul McCartney
Colaboração e revisão:
  • Reverb 2000
6.753 exibições
    • ½ Tom
    • A
    • Bb
    • B
    • C
    • Db
    • D
    • Eb
    • E
    • F
    • F#
    • G
    • Ab
  • Adicionar à lista

    0 comentários

    Ver todos os comentários
    00:00 / 00:00
    Outros vídeos desta música
    Repetir Qualidade Automático
    Outros vídeos desta música
    00:00 / 00:00
    Automático
    Capítulos
    • Tocando a Música
    • Apresentação / Equipamentos
    • Ensinando Riff Principal
    • Ensinando Primeira Parte
    • Ritmo do Refrão
    • Ensinando Primeiro Solo
    • Ensinando Segundo Solo
    • Encerramento

    Cifra Club Pro

    Aproveite o Cifra Club com benefícios exclusivos e sem anúncios
    Cifra Club Pro
    Aproveite o Cifra Club com benefícios exclusivos e sem anúncios
    OK