Cifra Club

Aprenda

Seven Nation Army

The White Stripes

Cifra: Versão 3 (violão e guitarra)
Tom: C

Riff 1                           
e|-----------------------|    
B|-----------------------|    
G|-----------------------|    
D|--------5--------------|    
A|--7--7-----7--5--3--2--|
E|-----------------------|

                          OU

Riff 1                                                          
e|-------------------------------------------------| 
B|-------------------------------------------------|  
G|-------------------------------------------------|  
D|-------------------------------------------------|  
A|--7--7--10--7--5--------7--7--10--7--5-----5-------| 
E|-----------------8--7-----------------8-----8--7-| 

                          OU

Riff 1                                                          
e|---------------------------------------------------| 
B|---------------------------------------------------|  
G|---------------------------------------------------|  
D|---------------------------------------------------|  
A|--7--7--10--7--5--3--2--7--7--10--7--5--3--5--3--2-| 
E|---------------------------------------------------| 

Riff 2
e|------------------------|
B|------------------------|    
G|------------------------|
D|----3-3-3-3-3-5-5-5-5-5-|
A|-0--3-3-3-3-3-5-5-5-5-5-|
E|----1-1-1-1-1-3-3-3-3-3-|


Riff 3
e|------------------------|-----------------------------|
B|------------------------|-----------------------------|
G|--9--9--12--9--7--5--4--|--9--9--12--9--7--5/7--5--4--|
D|--9--9--12--9--7--5--4--|--9--9--12--9--7--5/7--5--4--|
A|------------------------|-----------------------------|
E|------------------------|-----------------------------|
                        
                        OU

Riff 3 
e|---------------------------------------------------------|
B|---------------------------------------------------------|
G|-9---9--11--9--7-----------9---9--11--9--7------7--------|
D|-9---9--11--9--7--10--9----9---9--11--9--7--10--7---10--9|
A|-7---7--9---7--5--10--9----7---7--9---7--5--10--5---10--9|
E|------------------8---7---------------------8-------8---7|

Riff 1 4x

          Riff 1
I'm gonna fight em' off. 
               Riff 1
A seven nation army couldn't hold me back. 
              Riff 1
They're gonna rip it off. 
             Riff 1
Takin' their time right behind my back. 
        Riff 1
And I'm talkin to myself at night, because I cant forget. 
Riff 1                                          Riff 1
Back and forth through my mind behind a cigarette 
      Riff 2
And a message comin' from my eyes, says leave it alone.

Riff 3 2x
Riff 2 1x
Riff 1 4x

           Riff 1
Dont wanna hear about it.
              Riff 1 
Every single ones got a story to tell. 
         Riff 1
Everyone knows about it. 
                  Riff 1
From the Queen of England to the hounds of hell. 
         Riff 1
And if I catch you comin back my way, I'm gonna serve it to you. 
     Riff 1                                               Riff 1
And that ain't what you want to hear, but thats what I'll do. 
      Riff 2
And a feelin' comin' from my bones, says find a home. 

Solo
e|--------------------------------------------------------------------------------- -|
B|-------------------------------------------9---9--9---9--9-9/12--11----------------|
G|-----------------------------------------------------------------------------------|
D|-----------------------------------------------------------------------------------|
A|-----------------------------------------------------------------------------------|
E|-3-3-3-3-3-3-3-3--5-5-5-5-5-5-5-5--------------------------------------------------|

e|-----------------------------------------------------------------------------------|
B|-9---9--9--12--14--12--12/14--12--11-------9---9--9---9--9-9/12--11----------------|
G|-----------------------------------------------------------------------------------|
D|-----------------------------------------------------------------------------------|
A|-----------------------------------------------------------------------------------|
E|-----------------------------------------------------------------------------------|

e|-------------------------------------------12--12--12-15--12--12--12-15/14---------|
B|-9---9--9--12--14--12--12/14--12--11-----------------------------------------------|
G|-----------------------------------------------------------------------------------|
D|-----------------------------------------------------------------------------------|
A|-----------------------------------------------------------------------------------|
E|-----------------------------------------------------------------------------------|

e|--15-15-15-15-17-15-15/17-17-15-14--12-12-14-12-12-15-12--12-12-15-12-12-15--------|
B|----------------------------------------------------------------------------13-12-10
G|-----------------------------------------------------------------------------------|
D|-----------------------------------------------------------------------------------|
A|-----------------------------------------------------------------------------------|
E|-----------------------------------------------------------------------------------|

e|---3-3-3-3-3-3-5-5-5-5-5-5---------------------- ----------------------------------|
B|------------------------------7------------------0-c/microfonia--------------------|
G|-----------------------------------------------------------------------------------|
D|-----------------------------------------------------------------------------------|
A|-----------------------------------------------------------------------------------|
E|-----------------------------------------------------------------------------------|

Riff 1 4x

            Riff 1
Im goin' to Witchitaw.
              Riff 1
Far from this opera forever more.
         Riff 1
Im gonna work the straw (?). 
               Riff 1
Make the sweat drip out of every pore. 
        Riff 1
And I'm bleedin' and I'm bleedin' and Im bleedin' right before my lord. 
        Riff 1                                              Riff 1
All the words are gonna bleed from me, and I will sing no more. 
         Riff 2
And the stains comin from my blood, tell me go back home. 

FINAL

e|---------------------------------------------------|
B|---------------------------------------------------|
G|------9--------------------------------------------|
D|------9---Deixe-soar-.-.-.-------------------------|
A|--0---7--------------------------------------------|
E|---------------------------------------------------|
Pronto!
Composição de Jack White
Colaboração e revisão:
  • Laércio Junior
  • Thaís Oliveira
  • Mauricio Giordano
45.107 exibições
    • ½ Tom
    • A
    • Bb
    • B
    • C
    • Db
    • D
    • Eb
    • E
    • F
    • F#
    • G
    • Ab
  • Adicionar à lista

    0 comentários

    Mostrar mais comentários

    Conseguiu tocar?

    1 Tocaram 0 Ainda não

    Grave um vídeo tocando Seven Nation Army e mande pra gente!

    00:00 / 00:00
    outros vídeos desta música
    repetir qualidade Automático
    Outros vídeos desta música
    00:00 / 00:00
    Automático
    Capítulos
    • Abertura
    • Tocando a Música
    • Apresentação / Equipamentos
    • Tocando Riff Principal
    • Ensinando Intro
    • Acordes do Pré-Refrão
    • Ritmo do Pré-Refrão
    • Tocando Refrão
    • Ensinando Refrão
    • Tocando Solo
    • Ensinando Solo
    • Encerramento

    Cifra Club Pro

    Aproveite o Cifra Club com benefícios exclusivos e sem anúncios
    Cifra Club Pro
    Aproveite o Cifra Club com benefícios exclusivos e sem anúncios
    OK