Cifra Club

Till I'm Old And Gray

Tiago Iorc

Cifra: Principal (violão e guitarra)
tom: G
Intro:
     G      D   C     G
E|------------------------------------------------------
B|------------------------------------------------------
G|-----------0---0----------0-----0------0-----0--------
D|------0--4---2---0------------------------------------
A|--2h3----5---3------2---------------------------------
E|--3-----------------3---3---3---3---3----3---3--------

I wanna hold on to you
Find us a corner for two

Pré Refrao 1:
    
     Em                D     C
E|------------------------------------------------------
B|------------------------------------------------------
G|------------------------------------------------------
D|--5-----5------5----4-----2------2----2---0-----------
A|--------------------5-----3---3----3--3---------------
E|--0--0----0----0--------------------------------------

When you grow older
I'll be your shoulder, still

(Intro 1x)

(Inicio*)

     G      D   C     G
E|------------------------------------------------------
B|------------------------------------------------------
G|-----------0---0----------0-----0------0-----0--------
D|------0--4---2---0------------------------------------
A|--2h3----5---3------2---------------------------------
E|--3-----------------3---3---3---3---3----3---3--------

     G      D   C     G
E|------------------------------------------------------
B|------------------------------------------------------
G|--------------------------0-----0------0-----0--------
D|------0--4---5---0------------------------------------
A|--2h3----5---3------2---------------------------------
E|--3-----------------3---3---3---3---3----3---3--------


And I will take you as my wife
You take my soul, take my life

Pré Refrao 2:
    
     Em                D     C
E|------------------------------------------------------
B|------------------------------------------------------
G|------------------------------------------------------
D|--5-----5------5----4-----2------2----2---0-----------
A|--------------------5-----3---3----3--3---------------
E|--0--0----0----0--------------------------------------

E|------------------------------------------------------
B|------------------------------------------------------
G|------------------------------------------------------
D|--2h4h2h4h2h4h2h4h2h4h2h4h2h4h2h4h2h4h2h4h2-----------
A|--3---------------------------------------------------
E|------------------------------------------------------

I know I just met you
But I want to take this ride
You and I
Never, ever, ever to return

Refrão:

G            D/F#
All I'm asking of you
Em          Bm/F#
Let me be the one to
C        G
Carry you
                  C
I'll carry you home
             D
Till I'm old and gray

G            D/F#
All I'm asking of you
Em          Bm/F#
Just let me be the one to
C        G
Carry you
                  C
I'll carry you home
             D
Till I'm old and gray

(Intro)

     G      D   C     G
E|------------------------------------------------------
B|------------------------------------------------------
G|-----------0---0----------0-----0------0-----0--------
D|------0--4---2---0-----------------------------(3x)---
A|--2h3----5---3------2---------------------------------
E|--3-----------------3---3---3---3---3----3---3--------

     G      D   C     G
E|------------------------------------------------------
B|------------------------------------------------------
G|--------------------------0-----0------0-----0--------
D|------0--4---5---0------------------------------------
A|--2h3----5---3------2---------------------------------
E|--3-----------------3---3---3---3---3----3---3--------

I see our kids in the park
Running around 'till it's dark

Pré Refrão 1:
     Em                D     C
E|------------------------------------------------------
B|------------------------------------------------------
G|------------------------------------------------------
D|--5-----5------5----4-----2------2----2---0-----------
A|--------------------5-----3---3----3--3---------------
E|--0--0----0----0--------------------------------------

And as they grow older
We'll help 'em count the stars

(Intro 1x)

Pré Refrão 2:
     Em                D     C
E|------------------------------------------------------
B|------------------------------------------------------
G|------------------------------------------------------
D|--5-----5------5----4-----2------2----2---0-----------
A|--------------------5-----3---3----3--3---------------
E|--0--0----0----0--------------------------------------

E|------------------------------------------------------
B|------------------------------------------------------
G|------------------------------------------------------
D|--2h4h2h4h2h4h2h4h2h4h2h4h2h4h2h4h2h4h2h4h2-----------
A|--3---------------------------------------------------
E|------------------------------------------------------

Over and over
I will be where you are
Never far
You'll never, ever, ever be alone

Refrão + Bridge:

G            D/F#
All I'm asking of you
Em          Bm/F#
Let me be the one to
C        G
Carry you
                  C
I'll carry you home
             D
Till I'm old and gray

G            D/F#
All I'm asking of you
Em          Bm/F#
Just let me be the one to
C        G
Carry you
                  C
I'll carry you home
             Eb
Till I'm old and gray
    

Bridge:
   Em                    Eb
E|----------------------------------------------
B|----------------------------------------------
G|------------(4x)---------------(4x)-----------
D|-5h7--5h7-------------5h7--5h7----------------
A|-7----7---------------6----6------------------
E|----------------------------------------------

   Em                    F
E|----------------------------------------------
B|----------------------------------------------
G|------------(4x)---------------(4x)-----------
D|-5h7--5h7-------------7h9--7h9----------------
A|-7----7---------------8----8------------------
E|----------------------------------------------

   Em                    Eb
E|----------------------------------------------
B|----------------------------------------------
G|----------------(2x)-------------------(2x)---
D|-5----5--5--7--5-------5----5--5--7--5--------
A|-7----7--7--7--7-------6----6--6--6--6--------
E|-0---------------------0----------------------


Refrão:

G            D/F#
All I'm asking of you
Em          Bm/F#
Let me be the one to
C        G
Carry you
                  C
I'll carry you home
             D
Till I'm old and gray

G            D/F#
All I'm asking of you
Em          Bm/F#
Just let me be the one to
C        G
Carry you
                  C
I'll carry you home
             D
Till I'm old and gray

G            D/F#
All I'm asking of you
Em          Bm/F#
Just let me be the one to
C        G
Carry you
                  C
I'll carry you home
             D
Till I'm old and gray


(Intro x1)
00:00 / 00:00
Outros vídeos desta música
Repetir
Outros vídeos desta música
Composição de Tiago Iorc
Colaboração e revisão:
  • Marquinho Ribeiro
11.255 exibições
    • ½ Tom
    • A
    • Bb
    • B
    • C
    • Db
    • D
    • Eb
    • E
    • F
    • F#
    • G
    • Ab
  • Adicionar à lista

    0 comentários

    Ver todos os comentários

    Conseguiu tocar?

    4 Tocaram 2 Ainda não

    Grave um vídeo tocando Till I'm Old And Gray e nos envie!

    Entre para oCifra Club PRO

    Tenha acesso a benefícios exclusivos no App e no Site

    • Chega de anúncios

    • Prioridade de compra em lançamentos

    • Mais recursos no app do Afinador

    • Atendimento Prioritário

    • Descontos nos produtos Cifra Club

    • Ajude a produzir mais conteúdo

    00:00 / 00:00

    Cifra Club Pro

    Aproveite o Cifra Club com benefícios exclusivos e sem anúncios
    Cifra Club Pro
    Aproveite o Cifra Club com benefícios exclusivos e sem anúncios
    OK