Cifra Club

Miracle Drug

U2

Tab de baixo: Principal
intro(2X)
G|--------------------------------------------------------|
D|--------------------------------------------------------|
A|5-5----5-5------------------2-2----2-2------------------|
E|--------------5-5----5-5------------------3-3----3-3----|

verso(4x)
G|--------------------------------------------------------|
D|--------------------------------------------------------|
A|5-5----5-5------------------2-2----2-2------------------|
E|--------------5-5----5-5------------------3-3----3-3----|

pré-refrão
A|------------------22222222---------|
E|33333333-55555555----------33333333|

refrão
A|55555555----------22222222----------55555555----------22222222|
E|---------55555555----------33333333----------55555555---------|

verso
A|55555555----------22222222---------|(4x)
E|---------55555555----------33333333|

A|------------------22222222---------|
E|33333333-55555555----------33333333|

A|------------------22222222|
E|33333333-55555555---------|

refrão
A|55555555----------22222222---------|(2X)
E|---------55555555----------33333333|

A|------------------2|
E|33333333-55555555--|

ponte1(3x)
A|5--5--555-----------2--2--222----------|
E|----------5--5--555-----------3--3--333|

ponte2 + refrão (6x)
A|55555555----------22222222---------|
E|---------55555555----------33333333|

fim(2x)
A|------------------22222222---------|
E|33333333-55555555----------33333333|

Nessa música o Adam toca apenas a tônica e de vez em qdo faz umas variações,
q eu naum coloquei na tab, mas eh isso. Vlw, abraço!!!!

_______________________________________________________
Contribuição: Marcus Vinicius(marcus_vvp@hotmail.com)
exibições 3.086

0 comentários

mostrar mais comentários

Conseguiu tocar?

0 tocaram 0 ainda não

Grave um vídeo tocando Miracle Drug e mande pra gente!

00:00 / 00:00
outros vídeos desta música
repetir qualidade Automático
Outros vídeos desta música
00:00 / 00:00
Automático
OK