Cifra Club

No Line On The Horizon

U2

Cifra: Principal (violão e guitarra)
Tom: A
Intro: E  G#m  E

E
I know a girl

Who's like the sea
                                     G#m
I watch her changing every day for me  oh yeah
    E
oooooh

E
One day she's still

The next she swells
                                            G#m
You can hear the Universe in her sea shells oh yeah
    E
oooooh

Riff 1:
 C                   Am
No, no line on the horizon
 E
No, no line

Riff 2:
E
I kwow a girl

Hole in her heart
                                        G#m
She said infinity is a great place to start
    E
oooooh

Riff 2:
E
Time is irrelevant

it's not linear
                                    G#m
then she put her tongue in my ear oh-oh-oh-oh
    E
oooooh

Riff 3:
 C                 Am
No, no line on the horizon
 E
No, no line
 C                 Am
No, no line on the horizon
 E
No, no line

Riff 4:
E
Ooooooooooh
A
Oooh Oooooh Oooohh Ooooh Ooooh
E
Ooooooooooh Ooooooooooh Ooooooooooh
A
Oooh Oooooh Oooohh Ooooh Ooooh

Riff 5:
    F#m
The songs in your head
Are now on my mind
   B                           G                   D
You put you on pause and try to rewiiiiiiiind, reload
C#       B
and replay, hey

E
Every night I have

The same dream
                                              G#m
I'm hatching some plot scheming some scheme oh yeah
    E
oooooh

Riff 2:
E
I'm a traffic cop

Rue du Marais
                                                    G#m
The sirens is wailing but it's me that wants to get away
    E
oooooh

Riff 3:
C   Am
No, no line on the horizon
E
No, no  line
C   Am
No, no line on the horizon
E
No, no line

Final: (Riff 6) E  G#m   E
Riff 1:
    C             Am                   E
E|---------2--3--5~--3--2~--3--2---------|
B|-5~---5--------------------------5-----|
G|------------------------------------4~-|
D|---------------------------------------|
A|---------------------------------------|
E|---------------------------------------|

Riff 2: E  G#m

Riff 3:
   C             Am                   E      C             Am                   E
E|---------2--3--5~--3--2~--3--2---------------------2--3--5~--3--2~--3--2------5~-|
B|-5~---5--------------------------5---------5~---5--------------------------5-----|
G|------------------------------------4~-------------------------------------------|
D|---------------------------------------------------------------------------------|
A|---------------------------------------------------------------------------------|
E|---------------------------------------------------------------------------------|

Riff 4:
    E           A                E           A
E|-------------------------------------------------------|
B|-------------------------------------------------------|
G|-------------------------------------------------------|
D|--2--4--6--7--7----9-11--13----2~--4-6--7--7~/9/11--11-|
A|-------------------------------------------------------|
E|--0--2--4--5--5~---7-9---11----0~--2-4--5--5~/7/9---9--|

Riff 5:
    F#m              B          G    D  C#  B
E|------------------------------------------------|
B|------------------------------------------------|
G|-----------------------------------7--6---4/16~-|
D|--4--4-2--4--2-4---9--7--6----5-----------------|
A|-----------------------------------5--4---2/14~-|
E|--2--2-0--2--0-2---7--5--4----3-----------------|

Riff 6:
   E                      G#m                      E
E|-9--7--------|        |--8--6--------|        |--9--7--------|
B|-------9-----|  (4x)  |--------9-----|  (2x)  |--------9-----|  (3x)
G|----------9~-|        |-----------8~-|        |-----------9~-|
D|-------------|        |--------------|        |--------------|
A|-------------|        |--------------|        |--------------|
E|-------------|        |--------------|        |--------------|
exibições 8.998
Acordes para:
    Composição: Brian Eno / Danny Lanois / U2 Colaboração e revisão:
    • Tarcisio Althoff
    • bruno
    • Filipe Ribeiro

    0 comentários

    mostrar mais comentários

    Conseguiu tocar?

    0 tocaram 0 ainda não

    Grave um vídeo tocando No Line On The Horizon e mande pra gente!

    00:00 / 00:00
    outros vídeos desta música
    repetir qualidade Automático
    Outros vídeos desta música
    00:00 / 00:00
    Automático
    OK