Cifra Club

Anunciação

Victor e Leo

Cifra: Principal (violão e guitarra)
tom: D
Intro:
    A
E|--9-12-9-----9-12-9-----9-12-9-----9-12-9-----|
B|-10------10-10------10-10------10-10------10--|
G|----------------------------------------------|
D|----------------------------------------------|
A|----------------------------------------------|
E|----------------------------------------------|
   D
E|-10-12-9----10-12-9----10-12-9----10-12-9-----|
B|-10------10-10------10-10------10-10------10--|
G|----------------------------------------------|
D|----------------------------------------------|
A|----------------------------------------------|
E|----------------------------------------------|
   A
E|--9-12-9-----9-12-9-----9-12-9-----9-12-9-----|
B|-10------10-10------10-10------10-10------10--|
G|----------------------------------------------|
D|----------------------------------------------|
A|----------------------------------------------|
E|----------------------------------------------|
   D
E|-10-12-9----10-12-9----10-12-9----10-12-9-----|
B|-10------10-10------10-10------10-10------10--|
G|----------------------------------------------|
D|----------------------------------------------|
A|----------------------------------------------|
E|----------------------------------------------|
   A
E|--9-12-9-----9-12-9-----9-12-9-----9-12-9-----|
B|-10------10-10------10-10------10-10------10--|
G|----------------------------------------------|
D|----------------------------------------------|
A|----------------------------------------------|
E|----------------------------------------------|
   D
E|-10-12-9----10-12-9----10-12-9----10-12-9-----|
B|-10------10-10------10-10------10-10------10--|
G|----------------------------------------------|
D|----------------------------------------------|
A|----------------------------------------------|
E|----------------------------------------------|
   A
E|--9-12-9-----9-12-9-----9-12-9-----9-12-9-----|
B|-10------10-10------10-10------10-10------10--|
G|----------------------------------------------|
D|----------------------------------------------|
A|----------------------------------------------|
E|----------------------------------------------|
   D
E|-10-12-9----10-12-9----10---------------------|
B|-10------10-10------10-10---------------------|
G|----------------------------------------------|
D|----------------------------------------------|
A|----------------------------------------------|
E|----------------------------------------------|

                                     Bm
Na bruma leve das paixões que vem de dentro
                         D               A
Tu vens chegando prá brincar no meu quintal
                                 Bm
No teu cavalo peito nu cabelo ao vento
                        D           A
E o sol quarando nossas roupas no varal

                               Bm
A voz do anjo sussurrou no meu ouvido
                     D              A
E eu não duvido já escuto os teus sinais
                              Bm
Que tu virias numa manhã de domingo
                    D             A
Eu te anuncio nos sinos das catedrais

Refrão 2x:
    A       F#m G
Tu vens, tu vens
         D              A
Eu já escuto os teus sinais
Solo de gaita:
                                         Bm
E|-------9-10-9--------------------------------|
B|-10-12--------12-10h12p10----10-12-10-12-12--|
G|--------------------------11-----------------|
D|---------------------------------------------|
A|---------------------------------------------|
E|---------------------------------------------|
                             D          A
E|-------9-10-9----------------9---------------|
B|-10-12--------12-10h12p10------12-10-10------|
G|--------------------------11-----------------|
D|---------------------------------------------|
A|---------------------------------------------|
E|---------------------------------------------|
                                  Bm
E|-------9-10-9-------------------9------------|
B|-10-12--------12-10----10-12-10----12--------|
G|--------------------11-----------------------|
D|---------------------------------------------|
A|---------------------------------------------|
E|---------------------------------------------|
                          D       A
E|-------9-10-9----------9---------------------|
B|-10-12--------12-10------12-10-10------------|
G|--------------------11-----------------------|
D|---------------------------------------------|
A|---------------------------------------------|
E|---------------------------------------------|

                               Bm
A voz do anjo sussurrou no meu ouvido
                     D              A
E eu não duvido já escuto os teus sinais
                              Bm
Que tu virias numa manhã de domingo
                    D             A
Eu te anuncio nos sinos das catedrais

Refrão 4x:
    A       F#m G
Tu vens, tu vens
         D              A
Eu já escuto os teus sinais
00:00 / 00:00
Outros vídeos desta música
Repetir
Outros vídeos desta música
Composição de Alçeu Valença
Colaboração e revisão:
  • Edson Lins
117.401 exibições
  • Simplificar cifra
    • ½ Tom
    • A
    • Bb
    • B
    • C
    • Db
    • D
    • Eb
    • E
    • F
    • F#
    • G
    • Ab
  • Adicionar à lista

    0 comentários

    Ver todos os comentários

    Conseguiu tocar?

    14 Tocaram 2 Ainda não

    Grave um vídeo tocando Anunciação e nos envie!

    Entre para oCifra Club PRO

    Tenha acesso a benefícios exclusivos no App e no Site

    • Chega de anúncios

    • Prioridade de compra em lançamentos

    • Mais recursos no app do Afinador

    • Atendimento Prioritário

    • Descontos nos produtos Cifra Club

    • Ajude a produzir mais conteúdo

    00:00 / 00:00

    Cifra Club Pro

    Aproveite o Cifra Club com benefícios exclusivos e sem anúncios
    Cifra Club Pro
    Aproveite o Cifra Club com benefícios exclusivos e sem anúncios
    OK