Cifra Club

Aprenda

Girls Got Rhythm

AC/DC

Cifra: Versão 3 (violão e guitarra)
Tom: G
  Intro + Verse:
E|---------------------|------------------------|---------------------|
B|---------------------|------------------------|---------------------|
G|--7------5-----------|-----2--2-----5----2----|--7------5-----------|
D|--7------5--------2--|--4-----------5----2----|--7------5--------2--|
A|--5------3-----------|-----------0--3----0----|--5------3-----------|
E|---------------------|------------------------|---------------------|

|------------------------|---------------------|------------------------|
|------------------------|---------------------|------------------------|
|-----2--2-----5----2----|--7------5-----------|-----2--2-----5----2----|
|--4-----------5----2----|--7------5--------2--|--4-----------5----2----|
|-----------0--3----0----|--5------3-----------|-----------0--3----0----|
|------------------------|---------------------|------------------------|

|---------------------|-----------------------|---------------------|
|---------------------|-----------------------|---------------------|
|--7------5-----------|-----2--2-----2--------|--7------5-----------|
|--7------5--------2--|--4--------4--2--------|--7------5--------2--|
|--5------3-----------|--------------0--------|--5------3-----------|
|---------------------|-----------------------|---------------------|
                         wearin' dresses...
|------------------------|---------------------|------------------------|
|------------------------|--3------3-----------|------------------------|
|-----2--2-----5----2----|--2------2-----------|-----2--2-----5----2----|
|--4-----------5----2----|--0------0--------2--|--4--------4--5----2----|
|-----------0--3----0----|---------------------|--------------3----0----|
|------------------------|---------------------|------------------------|

|---------------------|------------------------|---------------------|
|--3------3-----------|------------------------|--3------3-----------|
|--2------2-----------|-----2--2-----5----2----|--2------2-----------|
|--0------0--------2--|--4--------4--5----2----|--0------0--------2--|
|---------------------|--------------3----0----|---------------------|
|---------------------|------------------------|---------------------|
                           no doubt...      can't live...
|------------------------|----------------------|---------------------|
|------------------------|--4--4------4---------|---------------------|
|-----2--2-----5----2----|--4--4------4---------|---------------------|
|--4--------4--5----2----|--4--4------4------2--|----2----2--2--------|
|--------------3----0----|--2--2------2------2--|----2----2--2--------|
|------------------------|-------------------0--|----0----0--0--------|
Composição de Angus Young / Bon Scott / Malcolm Young
3.582 exibições
  • Simplificar cifra
    • ½ Tom
    • A
    • Bb
    • B
    • C
    • Db
    • D
    • Eb
    • E
    • F
    • F#
    • G
    • Ab
  • Adicionar à lista

    0 comentários

    Mostrar mais comentários

    Conseguiu tocar?

    0 Tocaram 0 Ainda não

    Grave um vídeo tocando Girls Got Rhythm e mande pra gente!

    00:00 / 00:00
    outros vídeos desta música
    repetir qualidade Automático
    Outros vídeos desta música
    00:00 / 00:00
    Automático

    Cifra Club Pro

    Aproveite o Cifra Club com benefícios exclusivos e sem anúncios
    7 dias grátis
    Cifra Club Pro
    Aproveite o Cifra Club com benefícios exclusivos e sem anúncios
    7 dias grátis
    OK