Cifra Club

A chave da porta da frente

Barão Vermelho

Cifra: Principal (violão e guitarra)
Tom: G
Intro: E7  D7/9
(intro)
e|--------------------------------------------------------------------------------
B|--------------------------------------------------------------------------------
G|--------------------------------------------------------------------------------
D|--------7/9-9-9-x--4-4-4-x-7-7-7---2-6-7-6-7--9-9-9-x--4-4-4-x-7-7-7-x-2-2~~----
A|--7-7x--5/7-7-7-x--2-2-2-x-5-5-5---0-4-5-4-5--7-7-7-x--2-2-2-x-5-5-5-x-0-0~~----
E|--5-5x--------------------------------------------------------------------------

e|--------------------------------------------------------------------------------
B|--------------------------------------------------------------------------------
G|--9h7-----7--9~~-9x-9-11-12-9~~-------------------------------------------------
D|-------9------------------------------------------------------------------------
A|--------------------------------------------------------------------------------
E|--------------------------------------------------------------------------------(2x)
                                                                     
E7 
Becos escuros 
D7/9
Ruas desertas 
E7 
Sombras, sussurros 
D7/9
Noites e frestas 
E7 
Frio na espinha 
D7/9
Beijos roubados 
E7 
Sexo e vertigem 
D7/9
Amor e pecado 
 
C                   Am7 
Tudo que um dia ja foi o motivo 
     Bm7                 E7/9 
Pra tanto mistério e prazer 
       Am7                 D7/9 
Apodreceu nosso fruto proibido 
            Bm7              E7/9 
E eu vim aqui hoje só pra dizer 
 
 
               Am7  D7/9  Bm7              E7/9 
Eu quero te olhar         de um lugar diferente 
             Am7  D7/9 
Eu quero a chave 
     Bm7              E7/9 
A chave da porta da frente 
            A9  B9  C9  E9  D9 (pausa) 
Eu quero agora                         e eu quero pra sempre 
 
( E7    D7/9) 
 
E7 
Restos e sobras 
D7/9 
Porta dos fundos 
E7 
Senhas secretas 
D7/9
Sonhos ocultos 
E7 
Fugas, mentiras 
D7/9
Culpas e falhas 
E7 
Muita espera pra 
D7/9 
Pouca migalha 
 
C                   Am7 
Tudo que um dia já foi o motivo 
     Bm7                 E7/9 
Pra tanto mistério e prazer 
       Am7                 D7/9 
Apodreceu nosso fruto proibido 
            Bm7              E7/9 
E eu vim aqui hoje só pra dizer 
 
               Am7  D7/9  Bm7              E7/9 
Eu quero te olhar         de um lugar diferente 
             Am7  D7/9 
Eu quero a chave 
     Bm7              E7/9 
A chave da porta da frente 
            A9  B9  C9  E9  D9 (pausa) 
Eu quero agora                         e eu quero pra sempre
exibições 137.639
Acordes para:
    Composição: Frejat / Leoni Colaboração e revisão:
    • VLADIMIR KLIMEIKA
    • Stéffano Costa
    • Hugo Pinto

    0 comentários

    mostrar mais comentários

    Conseguiu tocar?

    6 tocaram 0 ainda não

    Grave um vídeo tocando A chave da porta da frente e mande pra gente!

    00:00 / 00:00
    outros vídeos desta música
    repetir qualidade Automático
    Outros vídeos desta música
    00:00 / 00:00
    Automático
    OK