Cifra Club

Aprenda

The Blessed Hellride

Black Label Society

Tab de baixo: Principal
  Intro

G|---------------------------|---------------------------||
D|---------------------------|---------------------------||
A|--5------------------------|--5------------------------||  Repetir 3x Intro
E|----------------2-----1----|---------------1------0----||


  Chorus

G|------------------|------------------|--------------------|------------------||
D|------------------|------------------|--------------------|------------------||
A|--5---------------|--5---------------|--------------------|------------------|| Repetir 2x
E|------------------|------------------|--5---5---5---3--2--|--0---3--------3--||

Agora
Intro Riff   x2
Chorus Riff   x3

   Solo
    Intro x2
   Depois esse Riff facil x1

G|------------------|------------------|------------------|------------------||
D|------------------|------------------|------------------|------------------||
A|--3---------------|--5---------------|--3---------------|--5---------------||
E|------------------|------------------|------------------|------------------||


G|------------------|------------------|------------------|------------------||
D|------------------|------------------|------------------|------------------||
A|--3---------------|--5---------------|--3---------------|------------------||
E|------------------|------------------|------------------|--3---3---3---3---||

Depois

G|--------------------|------------------||
D|--------------------|------------------||
A|--------------------|------------------||
E|--5---5---5---3--2--|--0---3--------3--||

 E final ... Chorus Riff   x2
Composição de Zakk Wylde
Colaboração e revisão:
  • Rafael Rodrigues
392 exibições

0 comentários

Ver todos os comentários

Conseguiu tocar?

0 Tocaram 0 Ainda não

Grave um vídeo tocando The Blessed Hellride e nos envie!

00:00 / 00:00
outros vídeos desta música
repetir qualidade Automático
Outros vídeos desta música
00:00 / 00:00
Automático

Cifra Club Pro

Aproveite o Cifra Club com benefícios exclusivos e sem anúncios
Cifra Club Pro
Aproveite o Cifra Club com benefícios exclusivos e sem anúncios
OK