Cifra Club

New Year's Day

Bon Jovi

Tab de baixo: Principal
Intro

G|--------------------------------------------------------------|
D|--------------------------------------------------------------|
A|-------------------------------------------------------7-7-7-7|
E|5-5-5-5-5-5-5-5-5-5-5-5-7-7-7-7-2-2-2-2-2-2-2-2-2-2-2-2-------|(2x)

The midnight bells are ringing...

G|-----------------------------------------------------------------|
D|-----------------------------------------------------------------|
A|5-5-5-5-5-5-5-5-5-5-5-5-7-7-7-7-0-0-0-0-0-0-0-0-0-0-0-0-0-7-7-7-7|
E|-----------------------------------------------------------------|

G|---------------------------------------------------------------|
D|---------------------------------------------------------------|
A|5-5-5-5-5-5-5-5-5-5-5-5-7-7-7-7-0-0-0-0-0-0-0-0-0-0-0-0--0-0---|
E|------------------------------------------------------------4-4|

A newborn baby is cryin...

G|---------------------------------------------------------------------------------------------------------|
D|---------------------------------------------------------------------------------------------------------|
A|---------------------------------------------------------------------------------------------------------|
E|2-2-2-2-2-2-2-2-2-2-2-2-4-4-4-4-5-5-5-5-5-5-5-5-5-5-5-5-0-0-0-0-0-0-0-0-0-0-0-0-0-5-5-5-5-5-5-5-5-5-5-5-5|

Refrão

And I'm singing hallelujah...

G|-----------------------------------------------------------------|
D|-----------------------------------------------------------------|
A|5-5-5-5-5-5-5-5-5-5-5-5-7-7-7-7-0-0-0-0-0-0-0-0-0-0-0-0-0-7-7-7-7|
E|-----------------------------------------------------------------|

G|---------------------------------------------------------------|
D|---------------------------------------------------------------|
A|5-5-5-5-5-5-5-5-5-5-5-5-7-7-7-7-0-0-0-0-0-0-0-0-0-0-0-0--0-0---|
E|------------------------------------------------------------4-4|

G|--------------------------------------------------------------------------------------------------------------------|
D|--------------------------------------------------------------------------------------------------------------------|
A|------------------------------------------------------5-5-5-5-5-5-5-5-4-4-4-4-4-4-4-4-------------------------------|
E|-2-2-2-2-2-2-2-2-2-2-2-2-4-4-4-4-5-5-5-5-5-5-5-5-5-5-5-------------------------------2-2-2-2-2-2-2-2-4-4-4-4-4-4-4-4|


Frase 2 

Where does the time go?...

G|-------------------------------------------------------------------------|
D|-------------------------------------------------------------------------|
A|5-5-5-5-5-5-5-5-5-5-5-5-5-4-4-4-4-4-4-4-4-4-4-4-4------------------------|
E|--------------------------------------------------2-2-2-2-2-2-2-2-2-2-2-2|

It's new year's day...
G|--------6-|
D|---6h7h9--|
A|7h9-------|
E|----------|

G|-------------------------------------------------------------------------|
D|-------------------------------------------------------------------------|
A|5-5-5-5-5-5-5-5-5-5-5-5-5-4-4-4-4-4-4-4-4-4-4-4-4------------------------|
E|--------------------------------------------------2-2-2-2-2-2-2-2-2-2-2-2|

It's new year's day...
G|--------6h7h9h11h13h14h16-|
D|---6h7h9------------------|
A|7h9-----------------------|
E|--------------------------|

Frase 1

G|-----------------------------------------------------------------|
D|-----------------------------------------------------------------|
A|5-5-5-5-5-5-5-5-5-5-5-5-7-7-7-7-0-0-0-0-0-0-0-0-0-0-0-0-0-7-7-7-7|
E|-----------------------------------------------------------------|

G|---------------------------------------------------------------|
D|---------------------------------------------------------------|
A|5-5-5-5-5-5-5-5-5-5-5-5-7-7-7-7-0-0-0-0-0-0-0-0-0-0-0-0--0-0---|
E|------------------------------------------------------------4-4|

G|--------------------------------------------------------------------------------------|
D|--------------------------------------------------------------------------------------|
A|--------------------------------------------------------------------------------------|
E|2-2-2-2-2-2-2-2-2-2-2-2-4-4-4-4-5-5-5-5-5-5-5-5-5-5-5-5-0-0-0-0-0-0-0-0-0-0-0-0-0-(5)-|

Refrão:

And I'm singing hallelujah...

G|-----------------------------------------------------------------|
D|-----------------------------------------------------------------|
A|5-5-5-5-5-5-5-5-5-5-5-5-7-7-7-7-0-0-0-0-0-0-0-0-0-0-0-0-0-7-7-7-7|
E|-----------------------------------------------------------------|

G|---------------------------------------------------------------|
D|---------------------------------------------------------------|
A|5-5-5-5-5-5-5-5-5-5-5-5-7-7-7-7-0-0-0-0-0-0-0-0-0-0-0-0--0-0---|
E|------------------------------------------------------------4-4|

G|--------------------------------------------------------------------------------------------------------------------|
D|--------------------------------------------------------------------------------------------------------------------|
A|------------------------------------------------------5-5-5-5-5-5-5-5-4-4-4-4-4-4-4-4-------------------------------|
E|-2-2-2-2-2-2-2-2-2-2-2-2-4-4-4-4-5-5-5-5-5-5-5-5-5-5-5-------------------------------2-2-2-2-2-2-2-2-4-4-4-4-4-4-4-4|



Final

G|-----------------------------------------------------------|
D|-----------------------------------------------------------|
A|-------------------------------------------------------(7)-|
E|5-5-5-5-5-5-5-5-5-5-5-5-7-7-7-7-2-2-2-2-2-2-2-2-2-2-2-2----|
exibições 92
Composição: Billy Falcon / Jon Bon Jovi Colaboração e revisão:
  • Gabriel Reis

0 comentários

mostrar mais comentários

Conseguiu tocar?

0 tocaram 0 ainda não

Grave um vídeo tocando New Year's Day e mande pra gente!

00:00 / 00:00
outros vídeos desta música
repetir qualidade Automático
Outros vídeos desta música
00:00 / 00:00
Automático
OK