Cifra Club

My First Punk Song

Box Car Racer

Cifra: Principal (violão e guitarra)
Tom: A
Versão 1
-======-

Tab by Rafael.

Into:microfonias end pick slaid's
|-#-----------#------------------------------------|
|-#-----------#------------------------------------|
|-#-----------#------------------------------------|
|-#-----------#---/-/-----------------------------|
|-#-----------#---/-/-----------------------------|
|-#-----------#---/-/-----------------------------|

Intro: 2
|--------------------------------------------|
|--------------------------------------------|
|------------6-6-------7-------------------|
|--7-7-7-7-6-6-6-6-7--------------------|
|--7-7-7-7-4-4-6-6-5--------------------|
|--5-5-5-5------4-4-----------------------|

Verse:
|---------------------------------------------|
|---------------------------------------------|
|------------4-4-------7--------------------|
|--2-2-2-2-4-4-6-6-7---------------------|
|--2-2-2-2-6-6-6-6-5---------------------|
|--0-0-0-0------4-4------------------------|

Choros:
|---------------------------------------------|
|---------------------------------------------|
|---------------------------------------------|
|--2-2-2-2-2-2-2-2-2-2-2---------------|
|--2-2-2-2-2-2-2-2-2-2-2---------------|
|--0-0-0-0-0-0-0-0-0-0-0---------------|


Final Choros:Let Ring
|---------------------------------------------|
|---------------------------------------------|
|---------------------------------------------|
|--2-2-2-0-6-7:----------------------------|
|--2-2-2-0-6-7:----------------------------|
|--0-0-0-0-4-5:----------------------------|



_______________________________________________________






Versão 2
-======-

e|--------------------------------------------------------|
B|--------------------------------------------------------|
G|--------------------------------------------------------|
D|--------------------------------------------------------|
A|-7777777777777777---(just keep doin that 4 a while)-----|
E|-5555555555555555---------------------------------------|
pick scratch inbetween intro and the first part

                        first part
e|--------------------------------------------------------|
B|--------------------------------------------------------|
G|--------------------------------------------------------|
D|--------------------------------------------------------|
A|-77777777-1111-66-12------------------------------------|
E|-55555555-9-9--44-10------------------------------------|
                        Second part
e|--------------------------------------------------------|
B|--------------------------------------------------------|
G|--------------------------------------------------------|
D|--------------------------------------------------------|
A|-22222222-77-22-66--------------------------------------|
E|-00000000-55-00-44--------------------------------------|

e|--------------------------------------------------------|
B|--------------------------------------------------------|
G|--------------------------------------------------------|
D|--------------------------------------------------------|
A|-77777777-1111-66-12---7-(let it ring)------------------|
E|-55555555-9-9--44-10---5--------------------------------|
exibições 6.606
Acordes para:
    Composição: Tom DeLonge / Travis Barker Colaboração e revisão:
    • Paulo Vitor

    0 comentários

    mostrar mais comentários

    Conseguiu tocar?

    0 tocaram 0 ainda não

    Grave um vídeo tocando My First Punk Song e mande pra gente!

    00:00 / 00:00
    outros vídeos desta música
    repetir qualidade Automático
    Outros vídeos desta música
    00:00 / 00:00
    Automático
    OK