Cifra Club

Aprenda

Dia Perfeito

Cachorro Grande

Tab de baixo: Principal
Já pensou em usar uma coleção de roupas do Cifra Club? Responda as perguntas abaixo e nos ajude nessa missão! →
 Um dia perfeito......

 E|--5-----------------|  |-------------------| |-------------------|
 A|----5--3--5/7-------|  |-5--3--5/7---------|	|-5--3--5/7---------|
 D|----------------6-7-|  |--------------6-7--| |--------------6-7--|
 G|--------------------|  |-------------------| |-------------------|

 She is realy......

 E|-------------------5----|
 A|--5/7---------7--5------|	
 D|-------5/7--5-----------|
 G|------------------------|

 Fina florr.........

 E|--5-----------------|  |-------------------| |-------------------|
 A|----5--3--5/7-------|  |-5--3--5/7---------|	|-5--3--5/7---------|
 D|----------------6-7-|  |--------------6-7--| |--------------6-7--|
 G|--------------------|  |-------------------| |-------------------|

 E era isso que eu sentia.........

 E|-------------------------------------------------------------------------13--10--7---3-|
 A|-----------------12--14------------12----------12-----------------14--12---------------|	
 D|----------14--12---------12--12-12----12-12-12----12---14-15--12-----------------------|
 G|---14--12------------------------------------------------------------------------------|

  e quando penso em aprontar.....
 |--------------------------------------|
 |-3-3-------------------------------7--|	
 |-----3--5-6-7--7--7-7-7-7-7-7-7-7-----|
 |--------------------------------------|

 E eu realmente....

 E|--5-----------------|  |---------------------5-------------------|
 A|----5--3--5/7-------|  |-5--3--5/7---------5---5--3--5/7---------|
 D|----------------6-7-|  |--------------6-7-------------------6-7--|
 G|--------------------|  |-----------------------------------------|

 O cangalho esteja cheio..........

 E|------------------------------------------------------------------------------13--10--7---3-|
 A|--12--14--------------14--12------------12----------12-----------------14--12---------------|	
 D|----------12--14--12----------12--12-12----12-12-12----12---14-15--12-----------------------|
 G|--------------------------------------------------------------------------------------------|
 
  e que tambem vai se.....
 |--------------------------------------|
 |-3-3-------------------------------7--|	
 |-----3--5-6-7--7--7-7-7-7-7-7-7-7-----|
 |--------------------------------------|

 _________Solo de baixo________

 E|-5-------7---------------------7----------------|-5-------7-----------------|
 A|---7--5-----3--5--7-------6-5----7------5-7-----|---7--5-----3--5--7--------|
 D|---------------------6-7-----------6-7-------7--|---------------------6-7---|
 G|------------------------------------------------|---------------------------|

 _____________________Refrao_____________

 E|-------------------------------------------------------------------------13--10--7---3-|
 A|-----------------12--14------------12----------12-----------------14--12---------------|	
 D|----------14--12---------12--12-12----12-12-12----12---14-15--12-----------------------|
 G|---14--12------------------------------------------------------------------------------|

  e quando penso em aprontar.....
 |--------------------------------------|
 |-3-3-------------------------------7--|	
 |-----3--5-6-7--7--7-7-7-7-7-7-7-7-----|
 |--------------------------------------|

 _______Novamente Solo de baixo,, um pouco diferente do outro_____________

 Um dia perfeito..........
 
 E|-5-------7------------------5------------------------7---------------|
 A|---7--5-----3--5--7-------5---5-4-3--5--7-------7-5----3------2------|
 D|---------------------6-7-------------------6-7-----------3-2---------|
 G|----------------------------------------------------------------1-2--|

 She is realy......

 E|------------------------|
 A|--5/7-------------------|	
 D|-------5/7---5/7--5/7-5-|
 G|------------------------|

 E|-5-------7---------------------7----------------|-5-------7-------------------7-------|
 A|---7--5-----3--5--7-------6-5----7------5-7-----|---7--5-----3--5--7------7-5---7-----|
 D|---------------------6-7-----------6-7-------7--|---------------------6-7---------6-7-|
 G|------------------------------------------------|-------------------------------------|


caso tiver duvidas mande um email... Obrigado 





_______________________________________________________
Composição de Marcelo Gross
Colaboração e revisão:
  • Fred Massaferro
11.675 exibições

0 comentários

Ver todos os comentários
00:00 / 00:00
Outros vídeos desta música
Repetir Qualidade Automático
Outros vídeos desta música
00:00 / 00:00
Automático

Cifra Club Pro

Aproveite o Cifra Club com benefícios exclusivos e sem anúncios
Cifra Club Pro
Aproveite o Cifra Club com benefícios exclusivos e sem anúncios
OK