Cifra Club

Aprenda

Sombras En Tiempos Perdidos

Caifanes

Cifra: Principal (violão e guitarra)
tom: A
este es el tab de la cansion por ahora solo e sacado la parte 
que toca alejandro marcovich. Echenle ganas 

intro 
e-0-0-0---0-------------------------------0-0-0---0---------------| 
b-2-2-2-4-2-4-4-2-0--2-2-2-0-2-2-0-0--0-0-2-2-2-4-2-4-4-2-0-------| 
g-------4---4-4-1----1-1-1---1-1----------------4---4-4-1---------| 
d-----------------4--------4-----4-4--2-4-----------------4-------| 
a-----------------------------------------------------------------| 
e-----------------------------------------------------------------| 

e---------------------0-0-0---0---------------| 
b-2-2-2-0--2-0-0--0-0-2-2-2-4-2-4-4-2-0-------| 
g-1-1-1----1----------------4---4-4-1---------| 
d-------4----4-4--2-4-----------------4-------| 
a---------------------------------------------| 
e---------------------------------------------| 

e---------------------0-0-0---0---------------| 
b-2-2-2-0--2-0-0--0-0-2-2-2-4-2-4-4-2-0-------| 
g-1-1-1----1----------------4---4-4-1---------| 
d-------4----4-4--2-4-----------------4-------| 
a---------------------------------------------| 
e---------------------------------------------| 

e---------------------0-0-0---0---------------| 
b-2-2-2-0--2-0-0--0-0-2-2-2-4-2-4-4-2-0-------| 
g-1-1-1----1----------------4---4-4-1---------| 
d-------4----4-4--2-4-----------------4-------| 
a---------------------------------------------| 
e---------------------------------------------| 

e---------------------0-0-0---0---------------| 
b-2-2-2-0--2-0-0--0-0-2-2-2-4-2-4-4-2-0-------| 
g-1-1-1----1----------------4---4-4-1---------| 
d-------4----4-4--2-4-----------------4-------| 
a---------------------------------------------| 
e---------------------------------------------| 

e---------------------0-0-0---0-----------------------------------| 
b-2-2-2-0--2-0-0--0-0-2-2-2-4-2-4-4-2-0-------2-2-2-0-2-0-0-0-0---| 
g-1-1-1----1----------------4---4-4-1---------1-1-1---1-----------| 
d-------4----4-4--2-4-----------------4-------------4---4-4-2-4---| 
a-----------------------------------------------------------------| 
e-----------------------------------------------------------------| 

el riff1 x4 
e--------------------| 
b---0-2-0-2-0--------| 
g-1-----------1------| 
d--------------------| 
a--------------------| 
e--------------------| 
el riff a 

e--------0-4-0-4-0-4-0-4-0-4-0-4-0-4-0-4-0--| 
b-------------------------------------------| 
g-------------------------------------------| 
d-4-2-4-2-----------------------------------| 
a-------------------------------------------| 
e-------------------------------------------| 
el riff 2 
e---------------0----------0---2--0--| 
b-------0-2-0-2----0-2-0-2-----------| 
g-----1----------1-------------------| 
d-4-4--------------------------------| 
a------------------------------------| 
e------------------------------------| 
el riff 3 
                  {de aqui se repite x4                        } 
e----------------------------------------------------------------| 
b-2-2---2-0-2-0-0-3-0-3-2-0---3-0-3-2-0---3---0-3-2-0------------| 
g-------------------------------------------0-----------2-2------| 
d---------------------------4-----------4-------------4-----4-4--| 
a----------------------------------------------------------------| 
e----------------------------------------------------------------| 
el riff 4 
e-0-----0-----0-----0-----0-----0-----0-----0-----0-----0-----0--| 
b-----0-----0-----0-----0-----0-----0-----0-----0-----0-----0----| 
g---1-----1-----1-----1-----1-----1-----1-----1-----1-----1------| 
d----------------------------------------------------------------| 
a----------------------------------------------------------------| 
e----------------------------------------------------------------| 

e-----0---------------------| 
b---0-----0------0-----0-0--| 
g-1-----1------1-----1------| 
d------------4-----4--------| 
a---------------------------| 
e---------------------------| 
el riff 4 x6 
e---------------------------| 
b---0-2-2-2-0-2-0-0---------| 
g-1-------------------------| 
d---------------------------| 
a---------------------------| 
e---------------------------| 
el riff 6 este se repite muchisimas veces no se cuantas hasta el final 
e---------------------------| 
b---------------------------| 
g---------------------------| 
d-1-1-1---1-----------------| 
a-------4---4-4-2-4---------| 
e---------------------------| 
eso es todo luego tratare de sacar la parte de saul. Escuchenla para que te salga bien practicala. 
dudas o comentarios a
Composição de Saul Hernandez
Colaboração e revisão:
  • Daniel Rodrigues
841 exibições
    • ½ Tom
    • A
    • Bb
    • B
    • C
    • Db
    • D
    • Eb
    • E
    • F
    • F#
    • G
    • Ab
  • Adicionar à lista

    0 comentários

    Ver todos os comentários

    Conseguiu tocar?

    0 Tocaram 0 Ainda não

    Grave um vídeo tocando Sombras En Tiempos Perdidos e nos envie!

    00:00 / 00:00
    Outros vídeos desta música
    Repetir Qualidade Automático
    Outros vídeos desta música
    00:00 / 00:00
    Automático

    Cifra Club Pro

    Aproveite o Cifra Club com benefícios exclusivos e sem anúncios
    Cifra Club Pro
    Aproveite o Cifra Club com benefícios exclusivos e sem anúncios
    OK