Cifra Club

Aprenda

Clocks

Coldplay

Cifra: Versão 6 (violão e guitarra)
tom: Db
Esta versão fica boa com dois violões um para o solo e outro para a base.
Escute a versão original para você pegar o ritmo com o violão base.

Afinação: eBGDAE (padrao)

Solo inicial:

     Eb                                  Bbm
e||--11----------11----------11-------|--9----------9----------9------|
B||------11----------11---------------|-----11---------11-------------|
G||----------12----------12------12---|---------10---------10-----10--|
D||-----------------------------------|-------------------------------|
A||-----------------------------------|-------------------------------|
E||-----------------------------------|-------------------------------|

    Bbm                               Fm
  |--9----------9----------9-------|--8----------8----------8------|   
  |-----11---------11--------------|-----9----------9--------------|
  |---------10---------10-----10---|--------10---------10------10--|
  |--------------------------------|-------------------------------|
  |--------------------------------|-------------------------------|
  |--------------------------------|-------------------------------|

Solo inicial (x2)
Solo inicial + acordes (x2)

Eb                      Bbm                                    Fm
The lights go out and I can't be saved / Tides that I tried to swim against
Eb                   Bbm                       Fm
Have brought me down upon my knees / Oh I beg, I beg and I plead - Singing
Eb                Bbm                            Fm
come out of the things unsaid / Shoot an apple off my head - And a
Eb            Bbm                                 Fm
trouble that can't be named / A tiger's waiting to be tamed - Singing

(Solo inicial + acordes)
  Yoooooooooooou    aare     x2

Eb          Bbm                                           Fm
Confusion that never stops / The closing walls and the ticking clocks - Gonna
Eb             Bbm                                     Fm
come back and take you home / I could not stop that you now know - Singing
Eb          Bbm                                Fm
come out upon my seas / Cursed missed opportunities - Am I
Eb      Bbm                          Fm
a part of the cure / Or am I part of the disease - Singing

(Solo inicial + acordes)
  Yoooooooooooou    aare     (x4)

Gb                 Dbm      Fm
  And (Oh) nothing else compares    (3x)

Solo inicial x 2

(Solo inicial)
  Yoooooooooooou    aare     (x2)

(Solo inicial + Acordes)
Home, home where I wanted to go

(Solo inicial + Acordes)
I went home, home where I wanted to go (x4)

Solo inicial x2
Composição de Chris Martin / Guy Berryman / Jon Buckland / Will Champion
Colaboração e revisão:
  • Allain
22.831 exibições
    • ½ Tom
    • A
    • Bb
    • B
    • C
    • Db
    • D
    • Eb
    • E
    • F
    • F#
    • G
    • Ab
  • Adicionar à lista

    0 comentários

    Ver todos os comentários
    00:00 / 00:00
    Outros vídeos desta música
    Repetir Qualidade Automático
    Outros vídeos desta música
    00:00 / 00:00
    Automático

    Cifra Club Pro

    Aproveite o Cifra Club com benefícios exclusivos e sem anúncios
    Cifra Club Pro
    Aproveite o Cifra Club com benefícios exclusivos e sem anúncios
    OK