Cifra Club

Bem Melhor Assim

Cristiano Araújo

Cifra: Principal (violão e guitarra)
tom: G
Intro: C  D  G  Bm  Em
       Am  C  D

E|-------------------------------|
B|-7p8-7---------------8-7-------|
G|-------9-7-9---9-9-9----9-7----|
D|-------------------------------|
A|-------------------------------|
E|-------------------------------|

E|------------------------------------|
B|-7p8-7------------------------------|
G|-------9-7-7---7----7---9/11--7/9---|
D|-------------9---9------------------|
A|------------------------------------|
E|------------------------------------|

E|----------------------------------------------|
B|-------------------------12/13-12-10------8---|
G|-9-------------9----------------------7p9-----|
D|---12-10-9p10----12-10-9----------------------|
A|----------------------------------------------|
E|----------------------------------------------|

G
Eu disse pra você
                C
Que eu não era fácil
G
Eu disse pra você
                          D
Que eu não sou um passarinho pra viver na gaiola
G                             C
Eu sempre preservei a minha liberdade
G                                       D
Eu sempre saio só, com meus amigos pra beber

Curtir, jogar conversa fora

Am                         C
Sem crise, sem ataque de ciúme
                              Bm7
Ninguém pra questionar o meu perfume
                         C
A gente fica e tal, mas cada um no seu quadrado

Am                         C
Confesso que tenho medo danado
                     Bm7
Namoro à sério é ser sufocado
                    C           (G)
Tá cedo pra amarrar meu coração

                C
É bem melhor assim
                                  D
Eu no meu canto aqui, você no seu aí
                 G
É bem melhor assim
                                     Bm   Em
Eu nem tchun pra você, você nem tchun pra mim
             C
É bem melhor assim
                D
É bem melhor assim
                   G                G7
Grudar demais estraga e a saudade acaba
00:00 / 00:00
Outros vídeos desta música
Repetir
Outros vídeos desta música
Composição de Magno Santanna / Tierry Coringa
Colaboração e revisão:
  • Alan Martins
  • matheus mendonça
60.025 exibições
    • ½ Tom
    • A
    • Bb
    • B
    • C
    • Db
    • D
    • Eb
    • E
    • F
    • F#
    • G
    • Ab
  • Adicionar à lista

    0 comentários

    Ver todos os comentários

    Conseguiu tocar?

    8 Tocaram 1 Ainda não

    Grave um vídeo tocando Bem Melhor Assim e nos envie!

    Entre para oCifra Club PRO

    Tenha acesso a benefícios exclusivos no App e no Site

    • Chega de anúncios

    • Prioridade de compra em lançamentos

    • Mais recursos no app do Afinador

    • Atendimento Prioritário

    • Descontos nos produtos Cifra Club

    • Ajude a produzir mais conteúdo

    00:00 / 00:00

    Cifra Club Pro

    Aproveite o Cifra Club com benefícios exclusivos e sem anúncios
    Cifra Club Pro
    Aproveite o Cifra Club com benefícios exclusivos e sem anúncios
    OK