Cifra Club

Luz da Minha Manhã

Fernando e Sorocaba

Cifra: Principal (violão e guitarra)
tom: A
[Refrão]

A               E                D
Luz da minha manhã, brilho do meu luar
  C#m     D         E   E7
Todo dia quero te amar
 A                E            D
Volta pros meus braços quero te dizer
 Bm         D          E
Eu preciso tanto de você
 Bm         D          E
Eu preciso tanto de você

[Solo] A  E  D  C#m  D  E

E|--------------------------------------------------|
B|-----------2-3-3/5-----10-9--5-5--2-3-3/10-10->---|
G|-------2-4----------------------------------------|
D|---2-4--------------------------------------------|
A|--------------------------------------------------|
E|--------------------------------------------------|

E|-----------------------------------------|
B|-----------2h3-2--2h3-2------------------|
G|-------2-4--------------4----------------|
D|---2-4--------------------2--------------|
A|-----------------------------------------|
E|-----------------------------------------|

       A                          E
Quando olho nos seus olhos tenho medo
         F#m                      E
Ninguém nesse mundo mais me fez chorar
       D          E           A    E    F#m
O meu coração dispara se embriaga de paixão
     D                            E
Das lembranças não consigo me livrar

        A                       E
Já não sei se estou certo ou errado
      F#m                    E
É um fogo que não sei como apagar
      D            E            A     E      F#m
Minha alma queima de saudades, sem você não dá,
         D           E            A     E E7
Ninguém nesse mundo toma o seu lugar

[Refrão]

 A               E               D
Luz da minha manhã, brilho do meu luar
 C#m       D         E   ( E7 )
Todo dia quero te amar
 A                E            D
Volta pros meus braços quero te dizer
 Bm         D          E
Eu preciso tanto de você
 Bm         D          E
Eu preciso tanto de você
00:00 / 00:00
Outros vídeos desta música
Repetir
Outros vídeos desta música
Compositor não encontrado.
158.096 exibições
    • ½ Tom
    • A
    • Bb
    • B
    • C
    • Db
    • D
    • Eb
    • E
    • F
    • F#
    • G
    • Ab
  • Adicionar à lista

    0 comentários

    Ver todos os comentários

    Conseguiu tocar?

    16 Tocaram 0 Ainda não

    Grave um vídeo tocando Luz da Minha Manhã e nos envie!

    Entre para oCifra Club PRO

    Tenha acesso a benefícios exclusivos no App e no Site

    • Chega de anúncios

    • Prioridade de compra em lançamentos

    • Mais recursos no app do Afinador

    • Atendimento Prioritário

    • Descontos nos produtos Cifra Club

    • Ajude a produzir mais conteúdo

    00:00 / 00:00

    Cifra Club Pro

    Aproveite o Cifra Club com benefícios exclusivos e sem anúncios
    Cifra Club Pro
    Aproveite o Cifra Club com benefícios exclusivos e sem anúncios
    OK