Cifra Club

Aprenda

My Hero

Foo Fighters

Cifra: Versão 4 (violão e guitarra)
Já pensou em usar uma coleção de roupas do Cifra Club? Responda as perguntas abaixo e nos ajude nessa missão! →
tom: E
Introdução: (E  C#m7) 3x
            (F#m  A)  1x

E    C#m7            E    C#m7
Too alarming now to talk about
E          C#m7               E        C#m7
Take your pictures down and shake it out
E          C#m7      E       C#m7  E         C#m7    E        C#m7
Truth or consequence say it aloud use that evidence race it around

Refrão:
A                                  E
There goes my hero watch him as he goes
E|-------------------------------------
B|-------------------------------------
G|----8-8-8-8-9-9-9-9-11-11-11-11------
D|-------------------------------------
A|----6-6-6-6-7-7-7-7-9--9--9--9-------
E|-------------------------------------

E|--------------------------------------
B|--------------------------------------
G|---11-11-11-11-13-13-13-13-8-8-8-8----
D|--------------------------------------
A|---9--9--9--9--11-11-11-11-6-6-6-6----
E|--------------------------------------

A                             E
There goes my hero he's ordinary
E|-------------------------------------
B|-------------------------------------
G|----8-8-8-8-9-9-9-9-11-11-11-11------
D|-------------------------------------
A|----6-6-6-6-7-7-7-7-9--9--9--9-------
E|-------------------------------------

E|--------------------------------------
B|--------------------------------------
G|---11-11-11-11-13-13-13-13-8-8-8-8----
D|--------------------------------------
A|---9--9--9--9--11-11-11-11-6-6-6-6----
E|--------------------------------------

Passagem:
   (F#m A)
E|---------------|
B|---------------|
G|---------------|
D|---------------|
A|------4-2------|
E|--2-2-----4-5--|

E         C#m7          E       C#m7
Don´t the best of them bleed it out
E          C#m7          E    C#m7
While the rest of them Peter out
E          C#m7      E       C#m7  E         C#m7    E        C#m7
Truth or consequence say it aloud use that evidence race it around

Refrão:
A                                  E
There goes my hero watch him as he goes
E|-------------------------------------
B|-------------------------------------
G|----8-8-8-8-9-9-9-9-11-11-11-11------
D|-------------------------------------
A|----6-6-6-6-7-7-7-7-9--9--9--9-------
E|-------------------------------------

E|--------------------------------------
B|--------------------------------------
G|---11-11-11-11-13-13-13-13-8-8-8-8----
D|--------------------------------------
A|---9--9--9--9--11-11-11-11-6-6-6-6----
E|--------------------------------------

A                             E
There goes my hero he's ordinary
E|-------------------------------------
B|-------------------------------------
G|----8-8-8-8-9-9-9-9-11-11-11-11------
D|-------------------------------------
A|----6-6-6-6-7-7-7-7-9--9--9--9-------
E|-------------------------------------

E|--------------------------------------
B|--------------------------------------
G|---11-11-11-11-13-13-13-13-8-8-8-8----
D|--------------------------------------
A|---9--9--9--9--11-11-11-11-6-6-6-6----
E|--------------------------------------

Passagem:
   (F#m A)
E|---------------|
B|---------------|
G|---------------|
D|---------------|
A|------4-2------|
E|--2-2-----4-5--|

E|0-0-0-0-0-0-0-0-0-0-0-0-0-0-0-0
B|5-5-5-5-5-5-4-4-4-4-4-4-4-4-4-4
G|-------------------------------
D|------------------------------- (2x)
A|-------------------------------
E|-------------------------------

E|0-0-0-0-0-0-0-0-0-0-0-0-0-0-0-0-0-0-0-0-0
B|5-5-5-5-5-5-5-5-5-5-5-5-5-5-5-5-5-5-5-5-5
G|-----------------------------------------
D|-----------------------------------------
A|-----------------------------------------
E|-----------------------------------------

E|0--0--0--0--0--0--0--0--0--0--0
B|5b-5b-5b-5b-5b-5b-5b-5b-5b-5b-5b
G|-------------------------------
D|-------------------------------
A|-------------------------------
E|-------------------------------

E        C#m7
Kudos my hero
E              C#m7
Leaving all the best
E           C#m7
Your knows my hero
    E           C#m7
The one that´s on

Refrão:
A                                  E
There goes my hero watch him as he goes
E|-------------------------------------
B|-------------------------------------
G|----8-8-8-8-9-9-9-9-11-11-11-11------
D|-------------------------------------
A|----6-6-6-6-7-7-7-7-9--9--9--9-------
E|-------------------------------------

E|--------------------------------------
B|--------------------------------------
G|---11-11-11-11-13-13-13-13-8-8-8-8----
D|--------------------------------------
A|---9--9--9--9--11-11-11-11-6-6-6-6----
E|--------------------------------------

A                             E
There goes my hero he's ordinary
E|-------------------------------------
B|-------------------------------------
G|----8-8-8-8-9-9-9-9-11-11-11-11------
D|-------------------------------------
A|----6-6-6-6-7-7-7-7-9--9--9--9-------
E|-------------------------------------

E|--------------------------------------
B|--------------------------------------
G|---11-11-11-11-13-13-13-13-8-8-8-8----
D|--------------------------------------
A|---9--9--9--9--11-11-11-11-6-6-6-6----
E|--------------------------------------

Passagem:
   (F#m A)
E|---------------|
B|---------------|
G|---------------|
D|---------------|
A|------4-2------|
E|--2-2-----4-5--|
Composição de Foo Fighters
Colaboração e revisão:
128.225 exibições
  • Simplificar cifra
    • ½ Tom
    • A
    • Bb
    • B
    • C
    • Db
    • D
    • Eb
    • E
    • F
    • F#
    • G
    • Ab
  • Adicionar à lista

    0 comentários

    Ver todos os comentários
    00:00 / 00:00
    Outros vídeos desta música
    Repetir Qualidade Automático
    Outros vídeos desta música
    00:00 / 00:00
    Automático

    Cifra Club Pro

    Aproveite o Cifra Club com benefícios exclusivos e sem anúncios
    Cifra Club Pro
    Aproveite o Cifra Club com benefícios exclusivos e sem anúncios
    OK