Enviar cifraEntrar

Anna Molly

Incubus

Tab de baixo: Principal
exibições 6.555
Intro:

G|---------------------------------------------------
D|---------------------------------------------------
A|-1h3-6\---6h8-8\-3-6\------------------------------
E|--------4-------------4-1-3------------------------

G|---------------------------------------------------
D|---------------------------------------------------
A|-3-3-3-3-3-1-----------6\-3-3-3-3-1-1-1-1----------
E|-------------3-3-3-3-3--------------------3-3-3-3--

G|---------------------------------------------------
D|---------------------------------------------------
A|-5-5-5-5-------------------------------------------
E|---------------------------------------------------

G|---------------------------------------------------
D|------------------------------------------/5-------
A|-3-3-3-3-3-1-----------6\-3-3-3-3-1-1-1-1----5\----
E|-------------3-3-3-3-3-----------------------------


Primeira parte:
   PM.........................................
G|---------------------------------------------------
D|---------------------------------------------------
A|-3-3-3-1-3-3/5\3-1-----3-3-3-1-3-3/5\3-1-----------
E|-------------------3-3-------------------3-3-------
                                                       (2x)
   PM......................................
G|---------------------------------------------------
D|-----------------------------------------/5--------
A|-3-3-3-1-3-3/5\3-1-----3-3-3-1-3-3/5\3-1----5\-----
E|-------------------3-3-----------------------------

A cloud hangs over it's a city by the sea
I watch the ships pass and wonder if she might be
Out there and sober as a well for loneliness
Please do persist girl, its time we met and made a mess


Refrão:

G|---------------------------------------------------
D|---------------------------------------------------
A|-3-3-1-3-/6-3-3-/6-6-6-----------------6h8-8\------
E|-----------------------3-4-4-4-4-4-4-4-------------
                                                        
G|---------------------------------------------------
D|---------------------------------------------------
A|-3-3-1-3-/6-3-3-/6-6-6-----------------------------
E|-----------------------3-4-4-4-4-4-1-1-3-3---------

(...)
I picture your face in the back of my eyes
A fire in the attic, a proof of the prize
Anna Molly, Anna Molly, annomally


Interlúdio 1:

G|---------------------------------------------------
D|-----------------------1-----------------5-5-5-5---
A|-3-3-3-3-3-1-------------3-3-3-3-1-1-1-1-----------
E|-------------3-3-3-3-3-----------------------------

G|---------------------------------------------------
D|---------------------------------------------------
A|-5-5-5-5-------------------------------------------
E|---------------------------------------------------


(Repete primeira parte)

(...)
A cloud hangs over and mutes my happiness
A thousand ships couldn't send me back from distress
Wish you were here, I'm a wounded satellite
I need you now put me back together make me right


(Repete refrão 2x)

(...)
I picture your face in the back of my eyes
A fire in the attic, a proof of the prize
Anna Molly, Anna Molly, annomally

I'm calling your name up into the air
Nobody of the others could ever compare
Anna Molly, annomally


Segunda parte:

G|---8---8---8---8---8---8---------------------------
D|-6---6---6---6---6---6------8---8------------------
A|-------------------------/8---8--------------------
E|---------------------------------------------------
                                                        (2x)
G|---5---5---5---5---5---5---------------------------
D|-5---5---5---5---5---5------8---8------------------
A|-------------------------/8---8--------------------
E|---------------------------------------------------

G|---------------------------------------------------
D|---6---6---6---6---6---6------8---8----------------
A|-6---6---6---6---6---6---6-/8---8------------------
E|---------------------------------------------------
                                                        (2x)
G|---5---5---5---5---5---5---5---5-------------------
D|-5---5---5---5---5---5---5---5---------------------
A|---------------------------------------------------
E|---------------------------------------------------

(...)
Wait there is a light
There is a fire illuminated attic
Fate or something better I couldn't care less
Just stay with me a while

Wait there is a light, there is a fire
Defragmenting the attic
Fate or something better I couldn't care less
Just stay with me a while


Interlúdio 2:

G|---------------------------------------------------
D|-------1-1-1-------1-3-3-------1-1-----------------
A|-3-1-3-------3-1-3-------3-1-3---------------------  (3x)
E|-----------------------------------x-4-6-1-1-------


Terceiro refrão:
(*o baixo fica sem tocar nos 8 primeiros compassos)

G|---------------------------------------------------
D|---------------------------------------------------
A|-3-3-1-3-/6-3-3-/6-6-6-----------------6h8-8\------
E|-----------------------3-4-4-4-4-4-4-4-------------
                                                        
G|---------------------------------------------------
D|---------------------------------------------------
A|-3-3-1-3-/6-3-3-/6-6-6---------------------1-2-----
E|-----------------------3-4-4-4-4-4-1-1-3-3---------

G|---------------------------------------------------
D|---------------------------------------------------
A|-3-3-1-3-/6-3-3-/6-6-6---------------------1-2-----
E|-----------------------3-4-4-4-4-4-1-1-3-3---------

G|---------------------------------------------------
D|---------------------------------------------------
A|-3-3-1-3-/6-3-3-/6-6-6---------------------1-2-----
E|-----------------------3-4-4-4-4-4-1-1-3-3---------

(...)
I picture your face in the back of my eyes
A fire in the attic a proof of the prize
Anna Molly, annomally, Anna Molly

I'm calling your name up into the air
Nobody of the others could ever compare
Anna Molly, annomally

(Annomally)
Wait there is a light there is a fire
Defragmenting the attic
(Annomally)
Fate or something better I couldn't care less
Just stay with me a while


Final:

G|---------------------------------------------------
D|------------------------------------------/5-------
A|-3-3-3-3-3-1-----------6\-3-3-3-3-1-1-1-1----5\----
E|-------------3-3-3-3-3-----------------------------
  • 1
  • 2
  • 3
  • 4
  • 5
  • 6
  • 7
  • 8
  • 9
  • 10
  • 11
  • 12

    0 comentários

      mostrar mais comentários

      Conseguiu tocar?

      6tocaram0ainda não

      Grave um vídeo tocando Anna Molly e mande pra gente!

      00:00 / 00:00
      outros vídeos desta música
      repetirqualidadeautomática
      • automática
      Outro vídeos desta música
        00:00 / 00:00
        automática
        • automática
        fecharplay/pause subir/descer velocidade
        fechar
        OK