Cifra Club

Wish You Were Here

Incubus

Tab de baixo: Principal
exibições 1.243
(1x a introdução sem baixo e depois ele entra)


Introdução

G:-----------------------------------------------------------\
D:----------------------------------------------------------- \
A:-------2-2--5-5-------------------------------------------- /2x
E:5-5-0------------0-0---5-5--0--2-2--5-5--0-0---------------/


Riff 1

G:-----------------------------------------------------------\
D:------------------------------------9h11p9----------------- \
A:-------------5----------------5----9----------------------- /3x
E:7---5---2----------7---5---2-------------------------------/


Refrão

G:-----------------------------------------------------------\
D:----------------------------------------------------------- \
A:-------2-2--5-5-------------------------------------------- /4x
E:5-5-0------------0-0---5-5--0-0--2-2--5-5--0-0-------------/


Riff 1

G:-----------------------------------------------------------\
D:------------------------------------9h11p9----------------- \
A:-------------5----------------5----9----------------------- /3x
E:7---5---2----------7---5---2-------------------------------/


Refrão

G:-----------------------------------------------------------\
D:----------------------------------------------------------- \
A:-------2-2--5-5-------------------------------------------- /2x
E:5-5-0------------0-0---5-5--0-0--2-2--5-5--0-0-------------/


Riff 2

G:-----------------------------\
D:----------------------------- \
A:----------------------------- /3x
E:2-2-2--55555-x-3-3-3-3-x-33--/

G:------------------------------\
D:-------------------------55555-\
A:-------------------------------/1x
E:-2-2-2--55555-x-3-3-3-3-------/


(1x o refrão sem baixo)


Refrão

G:-----------------------------------------------------------\
D:----------------------------------------------------------- \
A:-------2-2--5-5-------------------------------------------- /2x
E:5-5-0------------0-0---5-5--0-0--2-2--5-5--0-0-------------/

0 comentários

    mostrar mais comentários

    Conseguiu tocar?

    0tocaram0ainda não

    Grave um vídeo tocando Wish You Were Here e mande pra gente!

    00:00 / 00:00
    outros vídeos desta música
    repetirqualidadeautomática
    Outro vídeos desta música
      00:00 / 00:00
      automática
      OK