Cifra Club

Aprenda

Wrathchild

Iron Maiden

Cifra: Principal (violão e guitarra)
tom: G
Chords used in this song:

   C   B   G   F#
E|------------------|
B|------------------|
G|--5---4-----------|
D|--5---4---5---4---|
A|--3---2---5---4---|
E|----------3---2---|

Bass-intro:

G|------------------------------------|
D|------------------------------------|
A|---5-7-------------5-7--------------|
E|-------0-0-0-0-0-0-----0-0-0-0-0-0--|

G|------------------------------------|
D|-------------------5-5-4-5-7-5-4----|
A|---5-7---------------------------5--|
E|-------0-0-0-0-0-0------------------|

Main Riff: 2x 

E|----------------------------------------------|
B|----------------------------------------------|
G|-------9-------9------9-----------------------|
D|-------9-------9------9----4-5-4-5-7-5-4-5----|
A|-------7-------7------7-----------------------|
E|-x-x-x---x-x-x---x-x-x------------------------|


I was born into a scene of angriness and greed
dominance and persecution...
E|----------------------------------------------|
B|----------------------------------------------|
G|-------9-------9------9-----------------------|
D|-------9-------9------9----4-5-4-5-7-5-4-5----|
A|-------7-------7------7-----------------------|
E|-x-x-x---x-x-x---x-x-x------------------------|


My mother was a queen my dad I've never seen
I was never meant to be

E|----------------------------------------------|
B|----------------------------------------------|
G|-------9-------9------9-----------------------|
D|-------9-------9------9----4-5-4-5-7-5-4-5----|
A|-------7-------7------7-----------------------|
E|-x-x-x---x-x-x---x-x-x------------------------|

Bridge 1:

   Now I spend my time looking all around
E|------------------------------------------------------------|
B|------------------------------------------------------------|
G|--5--5--5--5--5---4--4--4--4--4-------9---------9-----------|
D|--5--5--5--5--5---4--4--4--4--4-------9---------9-----------|
A|--3--3--3--3--3---2--2--2--2--2-------7---------7-----------|
E|--------------------------------x-x-x-----x-x-x-------------|

   For a man that's nowhere to be found
E|------------------------------------------------------------|
B|------------------------------------------------------------|
G|--5--5--5--5--5---4--4--4--4--4-------9---------9-----------|
D|--5--5--5--5--5---4--4--4--4--4-------9---------9-----------|
A|--3--3--3--3--3---2--2--2--2--2-------7---------7-----------|
E|--------------------------------x-x-x-----x-x-x-------------|


Bridge 2:

   Until I find him I never gonna stop searching.
E|--------------------------------|
B|--------------------------------|
G|--5--5--5--5--5---4--4--4--4--4-|
D|--5--5--5--5--5---4--4--4--4--4-|
A|--3--3--3--3--3---2--2--2--2--2-|
E|--------------------------------|

I'm gonna find my man. Gonna travel aroooouuuuuuuuuunnnnnd... (hahaha)

                             repete essa riff 2x, antes que o vocalista acabe de cantar
E|--------------------------| |-------------------------------------------|
B|--------------------------| |-------------------------------------------|
G|--------------5--5--4--4--| |-------9-------9-------9-------------------|
D|--5--5--4--4--5--5--4--4--| |-------9-------9-------9---4-5-4-7-5-4-5---|
A|--5--5--4--4--3--3--2--2--| |-------7-------7-------7-------------------|
E|--3--3--2--2--------------| |-x-x-x---x-x-x---x-x-x---------------------|

Chorus:

       Cos I'm a wrathchild
       Well I'm a wrathchild
       Yeh I'm a wrathchild

E|---------------------------------|
B|---------------------------------|
G|--------9------------------------|
D|--------9-----------------5------|
A|--------7-------7-5---5----------|
E|--x-x-x-------------7---7--------|

E|---------------------------------|
B|---------------------------------|
G|--------9------------------------|
D|--------9-----------------5------|
A|--------7-------7-5---5----------|
E|--x-x-x-------------7---7--------|

E|---------------------------------|
B|---------------------------------|
G|--------9------------------------|
D|--------9-----------------5------|
A|--------7-------7-5---5----------|
E|--x-x-x-------------7---7--------|

Chorus-lick 1:
E|---------------------------------|
B|---------------------------------|
G|---------------------------------|
D|---------------------------------|
A|--3-3-3-3-3---3-3---3---3-3---3--|
E|---------------------------------|

E|---------------------------------|
B|---------------------------------|
G|---------------------------------|
D|---------------------------------|
A|--5-5-5-5-5---5-5---5---5-5---5--|
E|---------------------------------|

Chorus-lick 2:
E|------------------------|
B|------------------------|
G|------------------------|
D|------------------------|
A|--7-5---5---5-----------|
E|------7---7---7-6-5--3--|

End of chorus.

Riff 2:
E|-------------------------------|
B|-------------------------------|
G|-------------------------------|
D|-------------------------------|
A|----------5-------5------------|
E|--7-7---7---7---7---7-6-5-3-0--|

Riff 3:
E|-------------------------------|
B|-------------------------------|
G|-------------------------------|
D|----------2-------2------------|
A|--4-4---4---4---4---4-3-2-0----|
E|----------------------------2--|

Riff 4:
E|-------------------------------|
B|-------------------------------|
G|-------------------------------|
D|----------3-------3------------|
A|--5-5---5---5---5---5-4-3-1----|
E|-----------------------------3-|

Song-structure:
Bass/Drums intro
Main Riff(4 times)
Bridge 1 (2 times)
Bridge 2
Mainriff (2 times)
Chorus
Mainriff (4 times)
Chorus-lick 1
Chorus-lick 2
Drum-bridge
Riff 2 (4 times)
Riff 3 (2 times)
Riff 4 (2 times)
Chorus-lick 2
Mainriff (4 times)
Bridge 1 (2 times)
Bridge 2
Mainriff (2 times)
Chorus
Chorus-lick 2 (2 times)
End.

Lyrics:

I was born into a scene
of angriness and greed
of dominance and persecution

My mother was a queen
my dad I've never seen
I was never meant to be

Now I spend my time
looking all around
For a man that's nowhere
to be found
until I find him
I'm never gonna stop searching
I'm gonna find my man
gonna travel around

CHORUS
Cos I'm a wrathchild
Well I'm a wrathchild
Yeh I'm a wrathchild
Oh I'm coming to get ya
Oh yeah-eh-yeah

Some say it shouldn't matter
ain't nothing gonna alter
the course of my destination

But I know I've gotta find
some serious peace of mind
or I know I'll just go crazy

CHORUS
Composição de Steve Harris
59.333 exibições
    • ½ Tom
    • A
    • Bb
    • B
    • C
    • Db
    • D
    • Eb
    • E
    • F
    • F#
    • G
    • Ab
  • Adicionar à lista

    0 comentários

    Ver todos os comentários

    Conseguiu tocar?

    5 Tocaram 0 Ainda não

    Grave um vídeo tocando Wrathchild e nos envie!

    00:00 / 00:00
    Outros vídeos desta música
    Repetir Qualidade Automático
    Outros vídeos desta música
    00:00 / 00:00
    Automático

    Cifra Club Pro

    Aproveite o Cifra Club com benefícios exclusivos e sem anúncios
    Cifra Club Pro
    Aproveite o Cifra Club com benefícios exclusivos e sem anúncios
    OK