Cifra Club

Aprenda

Quando o Sol Bater Na Janela do Teu Quarto

Legião Urbana

Tab de baixo: Principal
Quando o sol... 
(2x)
G|-------------------------------------------------|   
D|-------------------------------------------------|
A|-5-5-5-5-5-0-5-5-5-5-5---------------------------|
E|-----------------------0-2-3-3-3-2-0-0-0-0-0-0---|

G|----------------------------------------------------|
D|----------------------------------------------------|
A|--------------------------------------5-------------|
E|-5-5-5-5-5-0-5-5-5-5-5-0-2-3-3-3-3-3-3-0-2-3-5-5-5-0| 

Por que esperar...
G|----------------------------------------------------------------------------|
D|------------5-4h5-4-5--------------------------------7-5-----------------7-5|  (2x)
A|-------------------------------------------------5h7-----7-5---------5h7----|
E|-3-3-3-3-3------------3-3-3-3-3-3-3-3--5-5-5-5-5-------------5-5-5-5--------|

Até bem pouco tempo atrás...
G|----------------------------------------|
D|----------------------------------------| 
A|---------5-7-5---0-0-0-0-0--------------|
E|-0-0-0-0-------7-----------5-7-0-0-0-0-0|

Tudo é dor...
G|---------------------------------------------------------------------------------|
D|---------------------------------------------------------------------------------| 
A|-2-2-2-2-2-2-3-3-3-3-3-3-5-----------2-5-5-5-5-5-3-------------------------------|
E|---------------------------3-3-3-3-3--------------5-5-5-5-5-0-0-0-0-0-3-3-3-5-5-5|

Quando o sol... 
(2x)
G|-------------------------------------------------|   
D|-------------------------------------------------|
A|-5-5-5-5-5-0-5-5-5-5-5---------------------------|
E|-----------------------0-2-3-3-3-2-0-0-0-0-0-0---|

G|----------------------------------------------------|
D|----------------------------------------------------|
A|--------------------------------------5-------------|
E|-5-5-5-5-5-0-5-5-5-5-5-0-2-3-3-3-3-3-3-0-2-3-5-5-5-0| 

Solo final
G|--16-14----14------------------------------------|
D|--------17----17-16-14----14-16-14----14-16-14---|
A|-----------------------17----------17----------17|
E|-------------------------------------------------|
Composição de Dado Villa-Lobos / Renato Russo
Colaboração e revisão:
  • Cauê Coutinho
973 exibições

0 comentários

Ver todos os comentários
00:00 / 00:00
outros vídeos desta música
repetir qualidade Automático
Outros vídeos desta música
00:00 / 00:00
Automático

Cifra Club Pro

Aproveite o Cifra Club com benefícios exclusivos e sem anúncios
Cifra Club Pro
Aproveite o Cifra Club com benefícios exclusivos e sem anúncios
OK