Cifra Club

Quando Você Voltar

Legião Urbana

Cifra: Principal
exibições 241.547
Tom: G
Intro: G F C G F C

         G       F      C      G     2x
E|----------------------------|
B|----------0-----------------|
G|------0p2------------0p1-0--|
D|----------------------------|
A|----------------------------|
E|----------------------------|

G         C           G
Vai, se você precisa ir
    D                         C G/B Am
Não quero mais brigar esta noite
 Bm         C
Nossas acusações infantis
     G                  C
E palavras mordazes que machucam tanto
G                 C
  Não vão levar a nada, como sempre
G               D               C G/B
Vai, clareia um pouco a cabeça
Am     Bm  C        D         G
Já que vo..cê não quer conversar.
            Bm    C       D      G
Já brigamos tanto mas não vale a pena
                           Bm
Vou ficar aqui, com um bom livro ou com a TV
         C                         D
Sei que existe alguma coisa incomodando você
      Bm               Em    C G/B
Meu amor, cuidado na estrada
  Am        Bm      C
E quando você vol..tar
 D            G
Tranque o portão
           Bm
Feche as janelas
         C
Apague a luz
   D            (C G/B)2X  C C/B Am G
E saiba que te amo

Viola do final.
       G                F   C                6x
E|-------------------12-10-12-10-12-10-|
B|-12-10-12-10-8-----------------------|
G|-------------------------------------|
D|-------------------------------------|
A|-------------------------------------|
E|-------------------------------------|
Acordes para:
    Colaboração e revisão:

    0 comentários

      mostrar mais comentários

      Conseguiu tocar?

      20tocaram1ainda não

      Grave um vídeo tocando Quando Você Voltar e mande pra gente!

      00:00 / 00:00
      outros vídeos desta música
      repetirqualidadeautomática
      Outro vídeos desta música
        00:00 / 00:00
        automática
        OK