Cifra Club

Nobody Loves Me

Limp Bizkit

Tab de baixo: Principal
Intro x4
G |-----------------|
D |-----------------|
A |-----------------|
C#|-433-0-433-00----|
B |-----------------|


Chorus x8
G |------------------|
D |------------------|
A |------------------|
C#|------------------|
B |-2~-22~-2222-3b---|


Verse x4
G |-------------------|-----------3~-|
D |-------------------|-----------1~-|
A |---------------2---|--------------|
C#|------------4h6----|--------------|
B |-222--22-22--------|-222--22-22---|


Chorus x8


Interlude
   ________________
  |       x3       |
G |----------------|---------|
D |----------------|---------|
A |----------------|---------|
C#|-----16~~--16---|-----16b-|
B |-10~------------|10~------|


Verse x4


Chorus x8


Bridge
G |-------|
D |-------|
A |-4~~~--|
C#|-------|
B |-------|


"Now what's the matter with this"
G |-6~--9~-8-|6~--11-9-|
D |-6~--9~-8-|6~--11-9-|
A |-4~--7~-6-|4~--9--7-| x2
C#|----------|---------|
B |----------|---------|
  
   ____ ___________________
  | x1 |        x2         |
G |----|6~--9~-8-|6~--11-9-|
D |----|6~--9~-8-|6~--11-9-|
A |-42-|4~--7~-6-|4~--9--7-| 
C#|----|---------|---------|
B |----|---------|---------|


"Oh.. I'm such a piece of shit"
G |---------------------------------------|
D |---------------------------------------|
A |-4444444444444444444444444444444444444-| (Play that part 'til "Perfect")
C#|---------------------------------------|
B |---------------------------------------|


"Perfect, you're so perfect"
G |---------------------------------------|
D |---------------------------------------|
A |---------------------------------------| (Same here, 'til "YOU SUCK!")
C#|-0000000000000000000000000000000000000-| 
B |---------------------------------------|


"YOU SUCK!"
G |----------------|
D |----------------|
A |----------------| x8
C#|----------------|
B |-1-000--000-00--|


Intro x4


End
G |--------------|
D |--------------|
A |--------------|
C#|-----16~~--16-|
B |-10~----------|

G |---------------|
D |---------------|
A |--------15~----|
C#|-----16~----16-|
B |-10~-----------|

G |--------------|
D |--------------|
A |--------------|
C#|-----16~~--16-|
B |-10~----------|

G |---------------|
D |---------------|
A |--------15~----| (Then repeat only this, until the end of the song)
C#|-----16~----16-|
B |-10~-----------|
00:00 / 00:00
Outros vídeos desta música
Repetir
Outros vídeos desta música
Composição de DJ Lethal / Fred Durst / John Otto / Limp Bizkit / Sam Rivers / Wes Borland
Colaboração e revisão:
  • Pedro Rodrigues
136 exibições

0 comentários

Ver todos os comentários

Conseguiu tocar?

0 Tocaram 0 Ainda não

Grave um vídeo tocando Nobody Loves Me e nos envie!

Entre para oCifra Club PRO

Tenha acesso a benefícios exclusivos no App e no Site

  • Chega de anúncios

  • Prioridade de compra em lançamentos

  • Mais recursos no app do Afinador

  • Atendimento Prioritário

  • Descontos nos produtos Cifra Club

  • Ajude a produzir mais conteúdo

00:00 / 00:00

Cifra Club Pro

Aproveite o Cifra Club com benefícios exclusivos e sem anúncios
Cifra Club Pro
Aproveite o Cifra Club com benefícios exclusivos e sem anúncios
OK