Cifra Club

Am I Evil?

Metallica

Tab de baixo: Principal
exibições 7.066
|-------------|------------|------------|------|
|-2-------0-2-|-3----------|------------|------|
|-------------|------------|------------|------|
|-------------|---------3--|-0----------|------|


  W          W          W          +H     H
|----------|----------|----------|-------------|
|----------|----------|----------|-------------|
|----------|----------|----------|--------2----|
|----------|----------|-0--------|-(0)---------|


  W          +H     H      W          H    H
|----------|-------------|----------|-----------|
|----------|-------------|----------|-----------|
|-1--------|-(1)---------|----------|------2----|
|----------|--------1----|-0--------|-0---------|


  W          +H     H      W          +H     H
|----------|-------------|----------|-------------|
|----------|-------------|----------|-------------|
|-1--------|-(1)---------|----------|--------2----|
|----------|--------1----|-0--------|-(0)---------|


  W          +H     H      W          H    H
|----------|-------------|----------|-----------|
|----------|--------3----|-2--------|-----------|
|-1--------|-(1)---------|----------|------2----|
|----------|-------------|----------|-0---------|


  W          +H     H      W          +H     S S S S S S S S
|----------|-------------|----------|------------------------|
|----------|-------------|----------|--------0-0---0-0-0---0-|
|-1--------|-(1)---------|----------|------------------------|
|----------|--------1----|-0--------|-(0)--------------------|


  Q  S S S S E E S S S S   E E S S S S S S S S S S S S
|------------------------|-----------------------------|
|-2----------------------|-------------0-0---0-0-0---0-|
|------------------------|-----------------------------|
|----0-0---0-0---0-0---0-|-0---0-0---0-----------------|


  E E S S S S E E S S S S   Q  S S S S S S S S S S S S
|-------------------------|----------------------------|
|-2---------------2-2---2-|-2--2-2---2-0-0---0-0-0---0-|
|-------------------------|----------------------------|
|-----0-0---0-0-----------|----------------------------|


  E E S S S S E E S S S S   E E S S S S S S S S S S S S   Q  Q  Q  Q
|-------------------------|-----------------------------|-------------|
|-2-----------------------|-------------0-0---0-0-0---0-|----------3--|
|-------------------------|-----------------------------|----2--1-----|
|-----0-0---0-0---0-0---0-|-0---0-0---0-----------------|-0-----------|


                                                Q=240
  Q  Q  Q   Q    Q   Q   H       +Q   Q  H      W
|----4--3--10--|-9--10--12----|-(12)----------|------|
|-2------------|--------16----|-(16)----------|------|
|--------------|--------------|---------------|------|
|--------------|--------------|---------------|------|


  W          W          W          W
|----------|----------|----------|------|
|----------|----------|----------|------|
|----------|----------|----------|------|
|----------|----------|----------|------|


  W          W          W          W
|----------|----------|----------|------|
|----------|----------|----------|------|
|----------|----------|----------|------|
|----------|----------|----------|------|


                                  Q=160
                                 2/4
  W          W      W      W      W
|----------|------|------|------|------|
|----------|------|------|------|------|
|----------|------|------|------|------|
|----------|------|------|------|------|


 4/4
  W          W          W          H    Q  Q
|----------|----------|----------|------------|
|----------|----------|-2--------|---------0--|
|----------|----------|----------|------------|
|----------|----------|-0--------|------------|


  W          +Q.   E E E E E   H    +Q.   E   E E E E E E E E
|----------|-----------------|--------------|---0-------------|
|-2--------|-(2)---2---0---0-|-2----(2)---0-|-2---2-0---------|
|----------|-------5-----2---|--------------|---------2-1-0---|
|-0--------|-(0)-------------|--------------|---------------3-|


  E E E E E E E E   E E E E +Q   Q    E E E E E E E E   E E E E +Q   Q
|-----------------|-----------------|-----------------|-----------------|
|-----------------|-----------------|-----------------|-----------------|
|---------------0-|-------1-(1)--0--|---------------0-|-------1-(1)--0--|
|-0-0-0-0-3-0-0---|-0-0-0-----------|-0-0-0-0-3-0-0---|-0-0-0-----------|


  E E E E E E E E   E E E E +Q   Q    E E E E E E E E   E E E E E E E E
|-----------------|-----------------|-----------------|-----------------|
|-----------------|-----------------|-----------------|-------------0-2-|
|---------------0-|-------1-(1)--0--|---------------0-|-------0-1-2-----|
|-0-0-0-0-3-0-0---|-0-0-0-----------|-0-0-0-0-3-0-0---|-0-0-0-----------|


  E E E E E E E E   E E E E +Q   Q    E E E E E E E E   E E E E +Q   Q
|-----------------|-----------------|-----------------|-----------------|
|-----------------|-----------------|-----------------|-----------------|
|---------------0-|-------1-(1)--0--|---------------0-|-------1-(1)--0--|
|-0-0-0-0-3-0-0---|-0-0-0-----------|-0-0-0-0-3-0-0---|-0-0-0-----------|


  E E E E E E E E   E E E E +Q   Q    E E E E E E E E   E E E E E E E E
|-----------------|-----------------|-----------------|-----------------|
|-----------------|-----------------|-----------------|-----------------|
|---------------0-|-------1-(1)--0--|---------------0-|-------5-7-5-----|
|-0-0-0-0-3-0-0---|-0-0-0-----------|-0-0-0-0-3-0-0---|-0-0-0-------7-5-|


  E E E E E E E E   E E E E +Q   Q    E E E E E E E E   E E E E +Q   Q
|-----------------|-----------------|-----------------|-----------------|
|-----------------|-----------------|-----------------|-----------------|
|---------------0-|-------1-(1)--0--|---------------0-|-------1-(1)--0--|
|-0-0-0-0-3-0-0---|-0-0-0-----------|-0-0-0-0-3-0-0---|-0-0-0-----------|


  E E E E E E E E   E E E E +Q   Q    E E E E E E E E   E E E E +Q   Q
|-----------------|-----------------|-----------------|-----------------|
|-----------------|-----------------|-----------------|-----------------|
|---------------0-|-------1-(1)--0--|---------------0-|-------1-(1)--0--|
|-0-0-0-0-3-0-0---|-0-0-0-----------|-0-0-0-0-3-0-0---|-0-0-0-----------|


  E E E E E E E E   E E E E +Q   Q    E E E E E E E E   E E E E +Q   Q
|-----------------|-----------------|-----------------|-----------------|
|---------0-----2-|-------3-(3)--2--|---------0-----2-|-------3-(3)--2--|
|-2-2-2-2---2-2---|-2-2-2-----------|-2-2-2-2---2-2---|-2-2-2-----------|
|-----------------|-----------------|-----------------|-----------------|


  E E E E E E E E   E E E E +Q   Q    E E E E E E E E   E E E E +Q   Q
|-----------------|-----------------|-----------------|-----------------|
|---------0-----2-|-------3-(3)--2--|---------0-----2-|-------3-(3)--2--|
|-2-2-2-2---2-2---|-2-2-2-----------|-2-2-2-2---2-2---|-2-2-2-----------|
|-----------------|-----------------|-----------------|-----------------|


  E E E E E E E E   E E E E +Q   Q    E E E E E E E E   E E E E E E E E
|-----------------|-----------------|-----------------|-----------------|
|-----------------|-----------------|-----------------|-------------0-2-|
|---------------0-|-------1-(1)--0--|---------------0-|-------0-1-2-----|
|-0-0-0-0-3-0-0---|-0-0-0-----------|-0-0-0-0-3-0-0---|-0-0-0-----------|


  E E E E E E E E   E E E E +Q   Q    E E E E E E E E   E E E E +Q   Q
|-----------------|-----------------|-----------------|-----------------|
|-----------------|-----------------|-----------------|-----------------|
|---------------0-|-------1-(1)--0--|---------------0-|-------1-(1)--0--|
|-0-0-0-0-3-0-0---|-0-0-0-----------|-0-0-0-0-3-0-0---|-0-0-0-----------|


  E E E E E E E E   E E E E +Q   Q    E E E E E E E E   E E E E E E E E
|-----------------|-----------------|-----------------|-----------------|
|-----------------|-----------------|-----------------|-------------0-2-|
|---------------0-|-------1-(1)--0--|---------------0-|-------0-1-2-----|
|-0-0-0-0-3-0-0---|-0-0-0-----------|-0-0-0-0-3-0-0---|-0-0-0-----------|


  E E E E E E E E   E E E E +Q   Q    E E E E E E E E   E E E E +Q   Q
|-----------------|-----------------|-----------------|-----------------|
|-----------------|-----------------|-----------------|-----------------|
|---------------0-|-------1-(1)--0--|---------------0-|-------1-(1)--0--|
|-0-0-0-0-3-0-0---|-0-0-0-----------|-0-0-0-0-3-0-0---|-0-0-0-----------|


  E E E E E E E E   E E E E +Q   Q    E E E E E E E E   E E E E E E E E
|-----------------|-----------------|-----------------|-----------------|
|-----------------|-----------------|-----------------|-----------------|
|---------------0-|-------1-(1)--0--|---------------0-|-------5-7-5-----|
|-0-0-0-0-3-0-0---|-0-0-0-----------|-0-0-0-0-3-0-0---|-0-0-0-------7-5-|


  E E E E E E E E   E E E E +Q   Q    E E E E E E E E   E E E E +Q   Q
|-----------------|-----------------|-----------------|-----------------|
|-----------------|-----------------|-----------------|-----------------|
|---------------0-|-------1-(1)--0--|---------------0-|-------1-(1)--0--|
|-0-0-0-0-3-0-0---|-0-0-0-----------|-0-0-0-0-3-0-0---|-0-0-0-----------|


  E E E E E E E E   E E E E +Q   Q    E E E E E E E E   E E E E +Q   Q
|-----------------|-----------------|-----------------|-----------------|
|-----------------|-----------------|-----------------|-----------------|
|---------------0-|-------1-(1)--0--|---------------0-|-------1-(1)--0--|
|-0-0-0-0-3-0-0---|-0-0-0-----------|-0-0-0-0-3-0-0---|-0-0-0-----------|


  E E E E E E E E   E E E E +Q   Q    E E E E E E E E   E E E E +Q   Q
|-----------------|-----------------|-----------------|-----------------|
|---------0-----2-|-------3-(3)--2--|---------0-----2-|-------3-(3)--2--|
|-2-2-2-2---2-2---|-2-2-2-----------|-2-2-2-2---2-2---|-2-2-2-----------|
|-----------------|-----------------|-----------------|-----------------|


  E E E E E E E E   E E E E +Q   Q    E E E E E E E E   E E E E +Q   Q
|-----------------|-----------------|-----------------|-----------------|
|---------0-----2-|-------3-(3)--2--|---------0-----2-|-------3-(3)--2--|
|-2-2-2-2---2-2---|-2-2-2-----------|-2-2-2-2---2-2---|-2-2-2-----------|
|-----------------|-----------------|-----------------|-----------------|


  E E E E E E E E   E E E E +Q   Q    E E E E E E E E   E E E E E E E E
|-----------------|-----------------|-----------------|-----------------|
|-----------------|-----------------|-----------------|---2-2-2-2-2-2-2-|
|---------------0-|-------1-(1)--0--|---------------0-|-----------------|
|-0-0-0-0-3-0-0---|-0-0-0-----------|-0-0-0-0-3-0-0---|-0---------------|


  E E E E E E E E   E E E E +Q   Q    E E E E E E E E   E E E E +Q   Q
|-----------------|-----------------|-----------------|-----------------|
|-----------------|-----------------|-----------------|-----------------|
|---------------0-|-------1-(1)--0--|---------------0-|-------1-(1)--0--|
|-0-0-0-0-3-0-0---|-0-0-0-----------|-0-0-0-0-3-0-0---|-0-0-0-----------|


  Q.   E +Q   Q    E S S E E E E E E   E E E E E E E E   E E E E +Q   Q
|----------------|-5-5-5-5-5-5-------|-----------------|-----------------|
|-2----0-(0)-----|-------------------|-----------------|-----------------|
|-------------3--|---------------5-6-|-7-------------0-|-------1-(1)--0--|
|----------------|-------------7-----|---0-0-0-3-0-0---|-0-0-0-----------|


  Q.   E +Q   Q    E S S E E E E E E   Q.   E +Q   Q    E S S E E E E E E
|----------------|-5-5-5-5-5-5-------|----------------|-5-5-5-5-5-5---------|
|-2----0-(0)-----|-------------------|----------------|---------------------|
|-------------3--|---------------5-6-|-7----5-(5)--3--|---------------5-6---|
|----------------|-------------7-----|----------------|-------------7-------|


  Q.   E +Q   Q    E S S E E E E E E   Q.   E +Q    Q     +Q   Q  +H
|----------------|-5-5-5-5-5-5-------|-----------------|-----------------|
|----------------|-------------------|-----------------|-----------------|
|-7----5-(5)--3--|---------------5-6-|-7----9-(9)--10--|-(10)------------|
|----------------|-------------7-----|-----------------|-------8--(8)----|


                            Q=192
  +W           +W           E E S S S S E E S S S S
|------------|------------|-------------------------|
|------------|------------|---7-7-7---7---7-7-7---7-|
|------------|------------|-------------------------|
|-(8)--------|-(8)--------|-5-----------5-----------|


  E E S S S S Q  Q    E E S S S S E E S S S S   E E S S S S Q  Q
|-------------------|-------------------------|--------------------|
|---7-7-7---7-------|---7-7-7---7---7-7-7---7-|---7-7-7---7--------|
|----------------5--|-------------------------|--------------------|
|-5-----------3-----|-5-----------5-----------|-5-----------8--3---|


  E E S S S S E E S S S S   E E S S S S Q  Q    E E S S S S E E S S S S
|---2-2-2---2---2-2-2---2-|---2-2-2---2-------|-------------------------|
|-------------------------|-------------------|---7-7-7---7---7-7-7---7-|
|-0-----------0-----------|-0--------------5--|-------------------------|
|-------------------------|-------------3-----|-5-----------5-----------|


  E E S S S S S S S S Q    E E S S S S E E S S S S   E E S S S S E E +Q
|------------------------|-------------------------|----------------------|
|---7-7-7---7-7-7---7----|-------------------------|----------------------|
|---------------------7--|-7-----------7-----------|-7-------------5-(5)--|
|-5----------------------|---0-0-0---0---0-0-0---0-|---0-0-0---0-0--------|


  E E S S S S E E S S S S   E E S S S S E. S +S  E.   E E S S S S E E S S S S
|-------------------------|-------------------------|-------------------------|
|-------------------------|-------------------------|-------------------------|
|-7-----------7-----------|-7--------------5-(5)-5--|-7-----------7-----------|
|---0-0-0---0---0-0-0---0-|---0-0-0---0-0-----------|---0-0-0---0---0-0-0---0-|


  E E S S S S E E +Q     E E S S S S E E S S S S   E E S S S S E. S +S  E.
|----------------------|-------------------------|--------------------------|
|----------------------|-------------------------|--------------------------|
|-7-------------5-(5)--|-7-----------7-----------|-7--------------5-(5)-5---|
|---0-0-0---0-0--------|---0-0-0---0---0-0-0---0-|---0-0-0---0-0------------|


  E E S S S S E E S S S S   E E S S S S E E +Q     E E S S S S E E S S S S
|-------------------------|----------------------|-------------------------|
|-------------------------|----------------------|-------------------------|
|-7-----------7-----------|-7-------------5-(5)--|-7-----------7-----------|
|---0-0-0---0---0-0-0---0-|---0-0-0---0-0--------|---0-0-0---0---0-0-0---0-|


  E E S S S S E. S +S  E.   E E S S S S E E S S S S   E E S S S S E E +Q
|-------------------------|-------------------------|-----------------------|
|-------------------------|-------------------------|-----------------------|
|-7--------------5-(5)-5--|-7-----------7-----------|-7-------------5-(5)---|
|---0-0-0---0-0-----------|---0-0-0---0---0-0-0---0-|---0-0-0---0-0---------|


  E E S S S S E E S S S S   E E S S S S E. S +S  E.   E E S S S S E E S S S S
|-------------------------|-------------------------|-------------------------|
|-------------------------|-------------------------|---7-7-7---7---7-7-7---7-|
|-7-----------7-----------|-7--------------5-(5)-5--|-------------------------|
|---0-0-0---0---0-0-0---0-|---0-0-0---0-0-----------|-5-----------5-----------|


  E E S S S S Q  Q    E E S S S S E E S S S S   E E S S S S Q  Q
|-------------------|-------------------------|--------------------|
|---7-7-7---7-------|---7-7-7---7---7-7-7---7-|---7-7-7---7--------|
|----------------5--|-------------------------|--------------------|
|-5-----------3-----|-5-----------5-----------|-5-----------8--3---|


  E E S S S S E E S S S S   E E S S S S Q  Q    E E S S S S E E S S S S
|---2-2-2---2---2-2-2---2-|---2-2-2---2-------|-------------------------|
|-------------------------|-------------------|---7-7-7---7---7-7-7---7-|
|-0-----------0-----------|-0--------------5--|-------------------------|
|-------------------------|-------------3-----|-5-----------5-----------|


  E E S S S S S S S S Q    E E S S S S E E S S S S   E E S S S S E E +Q
|------------------------|-------------------------|----------------------|
|---7-7-7---7-7-7---7----|-------------------------|----------------------|
|---------------------7--|-7-----------7-----------|-7-------------5-(5)--|
|-5----------------------|---0-0-0---0---0-0-0---0-|---0-0-0---0-0--------|


  E E S S S S E E S S S S   E E S S S S E. S +S  E.   E E S S S S E E S S S S
|-------------------------|-------------------------|-------------------------|
|-------------------------|-------------------------|-------------------------|
|-7-----------7-----------|-7--------------5-(5)-5--|-7-----------7-----------|
|---0-0-0---0---0-0-0---0-|---0-0-0---0-0-----------|---0-0-0---0---0-0-0---0-|


  E E S S S S E E +Q     E E S S S S E E S S S S   E E S S S S E. S +S  E.
|----------------------|-------------------------|--------------------------|
|----------------------|-------------------------|--------------------------|
|-7-------------5-(5)--|-7-----------7-----------|-7--------------5-(5)-5---|
|---0-0-0---0-0--------|---0-0-0---0---0-0-0---0-|---0-0-0---0-0------------|


  E E S S S S E E S S S S   E E S S S S E E +Q     E E S S S S E E S S S S
|-------------------------|----------------------|-------------------------|
|-------------------------|----------------------|-------------------------|
|-7-----------7-----------|-7-------------5-(5)--|-7-----------7-----------|
|---0-0-0---0---0-0-0---0-|---0-0-0---0-0--------|---0-0-0---0---0-0-0---0-|


  E E S S S S E. S +S  E.   E E S S S S E E S S S S   E E S S S S E E +Q
|-------------------------|-------------------------|-----------------------|
|-------------------------|-------------------------|-----------------------|
|-7--------------5-(5)-5--|-7-----------7-----------|-7-------------5-(5)---|
|---0-0-0---0-0-----------|---0-0-0---0---0-0-0---0-|---0-0-0---0-0---------|


  E E S S S S E E S S S S   E E S S S S E. S +S  E.   E E S S S S E E S S S S
|-------------------------|-------------------------|-------------------------|
|-------------------------|-------------------------|---7-7-7---7---7-7-7---7-|
|-7-----------7-----------|-7--------------5-(5)-5--|-------------------------|
|---0-0-0---0---0-0-0---0-|---0-0-0---0-0-----------|-5-----------5-----------|


  E E S S S S Q  Q    E E S S S S E E S S S S   E E S S S S Q  Q
|-------------------|-------------------------|--------------------|
|---7-7-7---7-------|---7-7-7---7---7-7-7---7-|---7-7-7---7--------|
|----------------5--|-------------------------|--------------------|
|-5-----------3-----|-5-----------5-----------|-5-----------8--3---|


  E E S S S S E E S S S S   E E S S S S Q  Q    E E S S S S E E S S S S
|---2-2-2---2---2-2-2---2-|---2-2-2---2-------|-------------------------|
|-------------------------|-------------------|---7-7-7---7---7-7-7---7-|
|-0-----------0-----------|-0--------------5--|-------------------------|
|-------------------------|-------------3-----|-5-----------5-----------|


  E E S S S S Q  Q    W          +W           H    H
|-------------------|----------|------------|-----------||
|---7-7-7---7-------|----------|------------|-----------||
|-------------------|----------|------------|------0----||
|-5-----------8--3--|-0--------|-(0)--------|-3---------||


  E E S S S S E E S S S S   E E S S S S E E S S S S   E E S S S S E E S S S S
|-------------------------|-------------------------|-------------------------|
|-------------------------|-------------------------|-------------------------|
|-2-2-2-2---2-2-2-2-2---2-|-2-2-2-2---2-2-2-2-2---2-|-2-2-2-2---2-2-2-2-2---2-|
|-------------------------|-------------------------|-------------------------|


  E E S S S S E E S S S S   E E S S S S E E S S S S   E E S S S S E E S S S S
|-------------------------|-------------------------|-------------------------|
|-------------------------|-------------------------|-------------------------|
|-2-2-2-2---2-2-2-2-2---2-|-2-2-2-2---2-2-2-2-2---2-|-2-2-2-2---2-2-2-2-2---2-|
|-------------------------|-------------------------|-------------------------|


  E E S S S S E E S S S S   E E S S S S E E S S S S   E E S S S S E E S S S S
|-------------------------|-------------------------|-------------------------|
|-------------------------|-------------------------|-------------------------|
|-2-2-2-2---2-2-2-2-2---2-|-2-2-2-2---2-2-2-2-2---2-|-2-2-2-2---2-2-2-2-2---2-|
|-------------------------|-------------------------|-------------------------|


  E E S S S S E E S S S S   E E S S S S E E S S S S   E E S S S S E E S S S S
|-------------------------|-------------------------|-------------------------|
|-------------------------|-------------------------|-------------------------|
|-2-2-2-2---2-2-2-2-2---2-|-2-2-2-2---2-2-2-2-2---2-|-2-2-2-2---2-2-2-2-2---2-|
|-------------------------|-------------------------|-------------------------|


  E E S S S S E E S S S S   E E S S S S E E S S S S   E E S S S S E E S S S S
|-------------------------|-------------------------|-------------------------|
|-2-----------2-----------|-2-----------2-----------|-2-----------2-----------|
|-------------------------|-------------------------|-------------------------|
|---0-0-0---0---0-0-0---0-|---0-0-0---0---0-0-0---0-|---0-0-0---0---0-0-0---0-|


  E E S S S S E E S S S S   E E S S S S E E S S S S   E E S S S S E E S S S S
|-------------------------|-------------------------|-------------------------|
|-2-----------2-----------|-------------------------|-------------------------|
|-------------------------|-2-2-2-2---2-2-2-2-2---2-|-2-2-2-2---2-2-2-2-2---2-|
|---0-0-0---0---0-0-0---0-|-------------------------|-------------------------|


  E E S S S S E E S S S S   E E S S S S E E S S S S   E E S S S S E E S S S S
|-------------------------|-------------------------|-------------------------|
|-------------------------|-------------------------|-------------------------|
|-2-2-2-2---2-2-2-2-2---2-|-2-2-2-2---2-2-2-2-2---2-|-2-2-2-2---2-2-2-2-2---2-|
|-------------------------|-------------------------|-------------------------|


  E E S S S S E E S S S S   E E S S S S E E S S S S   E E S S S S E E S S S S
|-------------------------|-------------------------|-------------------------|
|-------------------------|-------------------------|-------------------------|
|-2-2-2-2---2-2-2-2-2---2-|-2-2-2-2---2-2-2-2-2---2-|-2-2-2-2---2-2-2-2-2---2-|
|-------------------------|-------------------------|-------------------------|


  E E S S S S E E S S S S   E E S S S S E E S S S S   E E S S S S E E S S S S
|-------------------------|-------------------------|-------------------------|
|-------------------------|-------------------------|-------------------------|
|-2-2-2-2---2-2-2-2-2---2-|-2-2-2-2---2-2-2-2-2---2-|-0-0-0-0---0-0-0-0-0---0-|
|-------------------------|-------------------------|-------------------------|


  E E S S S S E E S S S S   E E S S S S E E S S S S   E E S S S S E E S S S S
|-------------------------|-------------------------|-------------------------|
|-------------------------|-------------------------|-------------------------|
|-0-0-0-0---0-0-0-0-0---0-|-------------------------|-------------------------|
|-------------------------|-1-1-1-1---1-1-1-1-1---1-|-1-1-1-1---1-1-1-1-1---1-|


  E E S S S S E E S S S S   E E S S S S E E S S S S   E E S S S S E E S S S S
|-------------------------|-------------------------|-------------------------|
|-------------------------|-------------------------|-------------------------|
|-1-1-1-1---1-1-1-1-1---1-|-1-1-1-1---1-1-1-1-1---1-|-------------------------|
|-------------------------|-------------------------|-2-2-2-2---2-2-2-2-2---2-|


  E E S S S S E E S S S S   E E S S S S E E S S S S   E E S S S S E E S S S S
|-------------------------|-------------------------|-------------------------|
|-------------------------|-------------------------|-------------------------|
|-------------------------|-2-2-2-2---2-2-2-2-2---2-|-2-2-2-2---2-2-2-2-2---2-|
|-2-2-2-2---2-2-2-2-2---2-|-------------------------|-------------------------|


  E E S S S S E E S S S S   E E S S S S E E S S S S   E E S S S S E E S S S S
|-------------------------|-------------------------|-------------------------|
|-------------------------|-------------------------|-------------------------|
|-2-2-2-2---2-2-2-2-2---2-|-2-2-2-2---2-2-2-2-2---2-|-2-2-2-2---2-2-2-2-2---2-|
|-------------------------|-------------------------|-------------------------|


  E E S S S S E E S S S S   E E S S S S E E S S S S   E E S S S S E E S S S S
|-------------------------|-------------------------|-------------------------|
|-------------------------|-------------------------|-------------------------|
|-2-2-2-2---2-2-2-2-2---2-|-2-2-2-2---2-2-2-2-2---2-|-2-2-2-2---2-2-2-2-2---2-|
|-------------------------|-------------------------|-------------------------|


  E E S S S S E E S S S S   E E S S S S E E S S S S   E E S S S S E E S S S S
|-------------------------|-------------------------|-------------------------|
|-------------------------|-------------------------|-2-----------2-----------|
|-2-2-2-2---2-2-2-2-2---2-|-2-2-2-2---2-2-2-2-2---2-|-------------------------|
|-------------------------|-------------------------|---0-0-0---0---0-0-0---0-|


  E E S S S S E E S S S S   E E S S S S E E S S S S   E E S S S S E. S +Q
|-------------------------|-------------------------|-----------------------|
|-2-----------2-----------|-2-----------2-----------|-2---------------------|
|-------------------------|-------------------------|-----------------------|
|---0-0-0---0---0-0-0---0-|---0-0-0---0---0-0-0---0-|---0-0-0---0-0--0-(0)--|


  E E S S S S E E S S S S   E E S S S S E E S S S S   E E S S S S E E S S S S
|-------------------------|-------------------------|-------------------------|
|-------------------------|-------------------------|-------------------------|
|-2-2-2-2---2-2-2-2-2---2-|-2-2-2-2---2-2-2-2-2---2-|-2-2-2-2---2-2-2-2-2---2-|
|-------------------------|-------------------------|-------------------------|


  E E S S S S E E S S S S    E E S S S S E E S S S S   E E S S S S Q  Q
|-------------------------||---2-2-2---2---2-2-2---2-|---2-2-2---2-------|
|-------------------------||-------------------------|-------------------|
|-2-2-2-2---2-2-2-2-2---2-||-0-----------0-----------|-0--------------5--|
|-------------------------||-------------------------|-------------3-----|


  E E S S S S E E S S S S   E E S S S S Q  Q    E E S S S S E E S S S S
|-------------------------|-------------------|---2-2-2---2---2-2-2---2-|
|---7-7-7---7---7-7-7---7-|---7-7-7---7-------|-------------------------|
|-------------------------|-------------------|-0-----------0-----------|
|-5-----------5-----------|-5-----------8--3--|-------------------------|


  E E S S S S Q  Q    E E S S S S E E S S S S   E E S S S S S S S S Q
|---2-2-2---2-------|-------------------------|------------------------|
|-------------------|---7-7-7---7---7-7-7---7-|---7-7-7---7-7-7---7----|
|-0--------------5--|-------------------------|---------------------7--|
|-------------3-----|-5-----------5-----------|-5----------------------|


  E E S S S S E E S S S S   E E S S S S E E +Q     E E S S S S E E S S S S
|-------------------------|----------------------|-------------------------|
|-------------------------|----------------------|-------------------------|
|-7-----------7-----------|-7-------------5-(5)--|-7-----------7-----------|
|---0-0-0---0---0-0-0---0-|---0-0-0---0-0--------|---0-0-0---0---0-0-0---0-|


  E E S S S S E. S +S  E.   E E S S S S E E S S S S   E E S S S S E E +Q
|-------------------------|-------------------------|-----------------------|
|-------------------------|-------------------------|-----------------------|
|-7--------------5-(5)-5--|-7-----------7-----------|-7-------------5-(5)---|
|---0-0-0---0-0-----------|---0-0-0---0---0-0-0---0-|---0-0-0---0-0---------|


  E E S S S S E E S S S S   E E S S S S E. S +S  E.   E E S S S S E E S S S S
|-------------------------|-------------------------|-------------------------|
|-------------------------|-------------------------|-------------------------|
|-7-----------7-----------|-7--------------5-(5)-5--|-7-----------7-----------|
|---0-0-0---0---0-0-0---0-|---0-0-0---0-0-----------|---0-0-0---0---0-0-0---0-|


  E E S S S S E E +Q     E E S S S S E E S S S S   E E S S S S E. S +S  E.
|----------------------|-------------------------|--------------------------|
|----------------------|-------------------------|--------------------------|
|-7-------------5-(5)--|-7-----------7-----------|-7--------------5-(5)-5---|
|---0-0-0---0-0--------|---0-0-0---0---0-0-0---0-|---0-0-0---0-0------------|


  E E S S S S E E S S S S   E E S S S S E E +Q     E E S S S S E E S S S S
|-------------------------|----------------------|-------------------------|
|-------------------------|----------------------|-------------------------|
|-7-----------7-----------|-7-------------5-(5)--|-7-----------7-----------|
|---0-0-0---0---0-0-0---0-|---0-0-0---0-0--------|---0-0-0---0---0-0-0---0-|


  E E S S S S E. S +S  E.   E E S S S S E E S S S S   E E S S S S Q  Q
|-------------------------|-------------------------|--------------------|
|-------------------------|---7-7-7---7---7-7-7---7-|---7-7-7---7--------|
|-7--------------5-(5)-5--|-------------------------|----------------5---|
|---0-0-0---0-0-----------|-5-----------5-----------|-5-----------3------|


  E E S S S S E E S S S S   E E S S S S Q  Q    E E S S S S E E S S S S
|-------------------------|-------------------|---2-2-2---2---2-2-2---2-|
|---7-7-7---7---7-7-7---7-|---7-7-7---7-------|-------------------------|
|-------------------------|-------------------|-0-----------0-----------|
|-5-----------5-----------|-5-----------8--3--|-------------------------|


  E E S S S S Q  Q    E E S S S S E E S S S S   E E S S S S Q  Q
|---2-2-2---2-------|-------------------------|--------------------|
|-------------------|---7-7-7---7---7-7-7---7-|---7-7-7---7--------|
|-0--------------5--|-------------------------|--------------------|
|-------------3-----|-5-----------5-----------|-5-----------8--3---|


  E E S S S S E E S S S S   E E S S S S Q  Q    E E S S S S E E S S S S
|---2-2-2---2---2-2-2---2-|---2-2-2---2-------|-------------------------|
|-------------------------|-------------------|---7-7-7---7---7-7-7---7-|
|-0-----------0-----------|-0--------------5--|-------------------------|
|-------------------------|-------------3-----|-5-----------5-----------|


  E E S S S S Q  Q    E E S S S S E E S S S S   E E S S S S Q  Q
|-------------------|---2-2-2---2---2-2-2---2-|---2-2-2---2--------|
|---7-7-7---7-------|-------------------------|--------------------|
|-------------------|-0-----------0-----------|-0--------------5---|
|-5-----------8--3--|-------------------------|-------------3------|


  E E S S S S E E S S S S   E E S S S S Q  Q    E E E E E E E E
|-------------------------|-------------------|------------------|
|---7-7-7---7---7-7-7---7-|---7-7-7---7-------|-----2---0-0-0----|
|-------------------------|-------------------|-------0----------|
|-5-----------5-----------|-5-----------8--3--|-0-0-----------0--|


  E E E E S S S S S S S S   E E E E E E E E   E E E E S S S S S S S S
|-------------------------|-----------------|--------------------------|
|-0-0-0---------0-2-0-----|-----2---0-0-0---|-0-0-0---------0-2-0------|
|---------0-2-----------2-|-------0---------|---------0-2-----------2--|
|-------0-----------------|-0-0-----------0-|-------0------------------|


  E E E E E E E E   E E E E S S S S S S S S
|-----------------|-------------------------|
|-----2---0-0-0---|-0-0-0---------0-2-0-----|
|-------0---------|---------0-2-----------2-|
|-0-0-----------0-|-------0-----------------|


  E E E E E E +E  E   E E +E  E Q  Q
|-------------------|-----------------|
|-----2---0-0-(0)---|-0-0-(0)---0-----|
|-------0-----------|--------------0--|
|-0-0---------------|-----------------|


  Q=160
  Q  Q  H      W          H    +Q.   S S   E E E E E E Q
|------------|----------|----------------|----------------|
|------------|----------|------------2---|-2-2-2-2-2-2-2--|
|------------|----------|------------5---|----------------|
|-0----------|----------|-0----(0)-------|----------------|


  E E E E E E E E   E E E E +Q   Q    E E E E E E E E   E E E E +Q   Q
|-----------------|-----------------|-----------------|-----------------|
|-----------------|-----------------|-----------------|-----------------|
|---------------0-|-------1-(1)--0--|---------------0-|-------1-(1)--0--|
|-0-0-0-0-3-0-0---|-0-0-0-----------|-0-0-0-0-3-0-0---|-0-0-0-----------|


  E E E E E E E E   E E E E +Q   Q    E E E E E E E E   E E E E +Q   Q
|-----------------|-----------------|-----------------|-----------------|
|-----------------|-----------------|-----------------|-----------------|
|---------------0-|-------1-(1)--0--|---------------0-|-------1-(1)--0--|
|-0-0-0-0-3-0-0---|-0-0-0-----------|-0-0-0-0-3-0-0---|-0-0-0-----------|


  H    Q  Q
|--------------*|
|--------------*|
|--------------*|
|------3--0----*|
Composição: Brian Tatler / Sean HarrisColaboração e revisão:
  • Quincas Metaller

0 comentários

    mostrar mais comentários

    Conseguiu tocar?

    0tocaram0ainda não

    Grave um vídeo tocando Am I Evil? e mande pra gente!

    00:00 / 00:00
    outros vídeos desta música
    repetirqualidadeautomática
    Outro vídeos desta música
      00:00 / 00:00
      automática
      OK