Cifra Club

Aprenda

Disenchanted

My Chemical Romance

Tab de baixo: Principal
Bassist: Mikey Way
Album: The Black Parade
Tabbed By: Lewis [*]

My personal favourite off The Black Parade!  I'm not entirely 100% sure on some parts, 
it sounds alright to me.

Key:
x: Dead note

[Tuning: Standard - E,A,D,G]

Verse One, Part One: [Played VERY softly]
("Well I was there on the day" ... "But it started with an alright scene")
G|---------------------------------------|
D|-----------0~--0~----------------------|
A|-5~--5~--------------5~--5~-----0~--0~-|
E|---------------------------------------|

Verse One, Part Two:
("It was the roar of the crowd" ... "We laughed so hard it would sting")
G|---------------------------------------------------------------------|
D|---------------------------------------------------------------------|
A|-5555555555555555----------------------------------------------------|
E|------------------7777777777777777-3333333333333333-5555555566667777-|

Pre-Chorus: [NOTE: 11's, not 1's!]
("If I'm so wrong" ... "Cause you never learned a god damned thing")
G|-------------------------------------------------------------------------------|
D|-------------------------------------------------------------------------------|
A|-22222222-------------------55x5-44x4-2222222----------------------------------|
E|----------00000000-55555555-------------------00000000-5555-7777-9999-11111111-|

Chorus:
("You're just a sad song" ... "This never meant nothing to you")
G|---------------------------------------------------------------------|
D|---------------------------------------------------------------------|
A|-5555555555555555----------------------------------------------------|
E|------------------7777777777777777-3333333333333333-5555555555555555-|

Verse Two: [x2]
G|---------------------------------------------------------------------|
D|---------------------------------------------------------------------|
A|-5555555555555555----------------------------------------------------|
E|------------------7777777777777777-3333333333333333-5555555566667777-|

Pre-Chorus: [NOTE: 11's, not 1's!]
("If I'm so wrong" ... "Cause you never learned a god damned thing")
G|-------------------------------------------------------------------------------|
D|-------------------------------------------------------------------------------|
A|-22222222-------------------55x5-44x4-2222222----------------------------------|
E|----------00000000-55555555-------------------00000000-5555-7777-9999-11111111-|

Chorus:
("You're just a sad song" ... "This never meant nothing to you")
G|---------------------------------------------------------------------|
D|---------------------------------------------------------------------|
A|-5555555555555555----------------------------------------------------|
E|------------------7777777777777777-3333333333333333-5555555555555555-|

Interlude:
("So go" ...)
G|------------------------------------------------------------------|
D|------------------------------------------------------------------|
A|-5-555~--------5-555~--------55x-544x-422x-200~-------------------|
E|--------1-111~--------1-111~--------------------55555555-77777777-|

Interlude, Part Two:
(... "Woah, oh")
G|---------------------------------------------------------------------|
D|---------------------------------------------------------------------|
A|-5555555555555555----------------------------------------------------|
E|------------------7777777777777777-3333333333333333-5555555555555555-|

Chorus:
("You're just a sad song" ... "This never meant nothing to you")
G|---------------------------------------------------------------------|
D|---------------------------------------------------------------------|
A|-5555555555555555----------------------------------------------------|
E|------------------7777777777777777-3333333333333333-5555555555555555-|

Outro:
("At all" ... "At all")
G|----------REST----------|
D|----------REST----------|
A|----------REST----------|
E|----------REST----------|
Composição de My Chemical Romance
1.687 exibições

0 comentários

Mostrar mais comentários

Conseguiu tocar?

1 Tocaram 0 Ainda não

Grave um vídeo tocando Disenchanted e mande pra gente!

00:00 / 00:00
outros vídeos desta música
repetir qualidade Automático
Outros vídeos desta música
00:00 / 00:00
Automático

Cifra Club Pro

Aproveite o Cifra Club com benefícios exclusivos e sem anúncios
7 dias grátis
Cifra Club Pro
Aproveite o Cifra Club com benefícios exclusivos e sem anúncios
7 dias grátis
OK