Cifra Club

Aprenda

Disenchanted

My Chemical Romance

Tab de baixo: Versão 2
Album: The Black Parade
Tabbed By: Neema Salimi


The previous tab had some spots where E's were G's and G's were E's. Plus I fixed the
I'm pretty sure the walk-up the previous tab had in the pre-chorus was just the guitar
I also made the tab rhythmically correct (it's in 4/4, nothing faster than eighth notes).

Anyway, great song, but pretty easy to play.


Verse One
"Well I was there..."
G|7-------|7-------|--------|--------|--------|--------|--------|--------|
D|--------|--------|9-------|9-------|5-------|5-------|7-------|7-------|
A|--------|--------|--------|--------|--------|--------|--------|--------|
E|--------|--------|--------|--------|--------|--------|--------|--------|

"It was the roar..."
G|--------|--------|--------|--------|--------|--------|--------|--------|
D|--------|--------|--------|--------|--------|--------|--------|--------|
A|55555555|55555555|--------|--------|--------|--------|--------|--------|
E|--------|--------|77777777|77777777|33333333|33333333|55555555|55556666|

Pre-Chorus:
"If I'm so wrong..."
G|--------|--------|--------|--------|--------|--------|--------|--------|
D|--------|--------|--------|--------|--------|--------|--------|--------|
A|--------|--------|--------|55-544-4|--------|--------|--------|--------|
E|77777777|00000000|55555555|--------|77777777|33333333|55555555|55555555|

Chorus:
"You're just a sad song..."
G|--------|--------|--------|--------|--------|--------|--------|--------|
D|--------|--------|--------|--------|--------|--------|--------|--------|
A|55555555|55555555|--------|--------|--------|--------|--------|--------|
E|--------|--------|77777777|77777777|00000000|00000000|55555555|55555555|

Verse Two:
"I spent my high school career..."
G|--------|--------|--------|--------|--------|--------|--------|--------|
D|--------|--------|--------|--------|--------|--------|--------|--------|
A|55555555|55555555|--------|--------|--------|--------|--------|--------|
E|--------|--------|77777777|77777777|33333333|33333333|55555555|55556666|

Pre-Chorus:
"If I'm so wrong..."
G|--------|--------|--------|--------|--------|--------|--------|--------|
D|--------|--------|--------|--------|--------|--------|--------|--------|
A|--------|--------|--------|55-544-4|--------|--------|--------|--------|
E|77777777|00000000|55555555|--------|77777777|33333333|55555555|55555555|

Chorus:
"You're just a sad song..."
G|--------|--------|--------|--------|--------|--------|--------|--------|
D|--------|--------|--------|--------|--------|--------|--------|--------|
A|55555555|55555555|--------|--------|--------|--------|--------|--------|
E|--------|--------|77777777|77777777|00000000|00000000|55555555|55555555|

Interlude:
"So go..."
G|--------|--------|--------|--------|--------|--------|--------|--------|
D|--------|--------|--------|--------|--------|--------|--------|--------|
A|5--55---|1-------|5--55---|1-------|55-544-4|--------|--------|--------|
E|--------|--------|--------|--------|--------|77-755-5|33333333|55555555|

Instrumental
G|--------|--------|--------|--------|--------|--------|--------|--------|
D|--------|--------|--------|--------|--------|--------|--------|--------|
A|55555555|55555555|--------|--------|--------|--------|--------|--------|
E|--------|--------|77777777|77777777|33333333|33333333|55555555|55555555|

Chorus:
"You're just a sad song..."
G|--------|--------|--------|--------|--------|--------|--------|--------|
D|--------|--------|--------|--------|--------|--------|--------|--------|
A|55555555|55555555|--------|--------|--------|--------|--------|--------|
E|--------|--------|77777777|77777777|00000000|00000000|55555555|55555555|

"You're just a sad song..."
G|--------|--------|--------|--------|--------|--------|--------|--------|
D|--------|--------|--------|--------|--------|--------|--------|--------|
A|55555555|55555555|--------|--------|--------|--------|--------|--------|
E|--------|--------|77777777|77777777|00-000-0|00-000-0|55555555|55555555|

Outro:
("At all" ... "At all")
G|--------|
D|--------|
A|5-------|
E|--------|
Composição de My Chemical Romance
196 exibições

0 comentários

Mostrar mais comentários

Conseguiu tocar?

0 Tocaram 0 Ainda não

Grave um vídeo tocando Disenchanted e mande pra gente!

00:00 / 00:00
outros vídeos desta música
repetir qualidade Automático
Outros vídeos desta música
00:00 / 00:00
Automático

Cifra Club Pro

Aproveite o Cifra Club com benefícios exclusivos e sem anúncios
7 dias grátis
Cifra Club Pro
Aproveite o Cifra Club com benefícios exclusivos e sem anúncios
7 dias grátis
OK