Cifra Club

Smells Like Teen Spirit

Nirvana

Cifra: Versão 6 (violão e guitarra)
Tom: C#
Introdução:

    F5            Bb5    G#5           C#5
E|---------------------------------------------|
B|---------------------------------------------|
G|---------------3-3-0----------------6-6-0----| 
D|-3-3-3--x-x-x--3-3-0--6-6-6--x-x-x--6-6-0----|
A|-3-3-3--x-x-x--1-1-0--6-6-6--x-x-x--4-4-0----|
E|-1-1-1--x-x-x---------4-4-4--x-x-x-----------|

Faz isso sem distorção 2x sendo que na segunda vez 
você bota distorção no powerchord C#5.
Riff 1 
B|--6-| (x2)
G|-5--|
Sem distorção.

B|--6-| (x4)
G|-5--|
Load up on guns and bring your friends
It's fun to lose and to pretend
She's over-bored and self assured
Oh no, I know a dirty word

Refrão:

(Distorcido)
B|---6----6----6----6----6----6---|  (x15)
G|-5----5----5----5----5----5-----|
       Hello, hello, hello, how low


    F5            Bb5    G#5           C#5
E|---------------------------------------------|
B|---------------------------------------------|
G|---------------3-3-0----------------6-6-0----| 
D|-3-3-3--x-x-x--3-3-0--6-6-6--x-x-x--6-6-0----|
A|-3-3-3--x-x-x--1-1-0--6-6-6--x-x-x--4-4-0----|
E|-1-1-1--x-x-x---------4-4-4--x-x-x-----------|

With the lights out, it's less dangerous
Here we are now, entertain us
I fell stupid, and contagious
Here we are now, entertain us
A mulatto, an albino
A mosquito, my libido, yeah
  
   F5  E5 F5  F#5       F5  Bb5 G#5       F5 E5 F5   F#5         F5  Bb5   G#5
E|------------------------------------|----------------------------------------|
B|------------------------------------|----------------------------------------|
G|-----------------3b-----------------|--------------------3b------------------|
D|-----2---------------------3--------|-------2-----------------------3--------|
A|-3---2--3---4-4-------3-3--1---6-6--|---3---2--3---4-4---------3-3--1----6-6-|
E|-1---0--1---2-2-------1-1------4-4--|---1---0--1---2-2---------1-1-------4-4-|
                   Hey!                                    Hey!
---------------------------------------------------------------------------------------

B|--6-| (x2)
G|-5--|
Sem distorção.

B|--6-| (x4)
G|-5--|
I'm worse at what I do best
And for this gift I feel blessed
Our little group has always been
And always will until the end

Refrão

(Distorcido)
B|---6----6----6----6----6----6---|  
G|-5----5----5----5----5----5-----|
       Hello, hello, hello, how low

    F5            Bb5    G#5           C#5
E|---------------------------------------------|
B|---------------------------------------------|
G|---------------3-3-0----------------6-6-0----| 
D|-3-3-3--x-x-x--3-3-0--6-6-6--x-x-x--6-6-0----|
A|-3-3-3--x-x-x--1-1-0--6-6-6--x-x-x--4-4-0----|
E|-1-1-1--x-x-x---------4-4-4--x-x-x-----------|

With the lights out, it's less dangerous
Here we are now, entertain us
I fell stupid, and contagious
Here we are now, entertain us
A mulatto, an albino
A mosquito, my libido, yeah

   F5  E5 F5  F#5       F5  Bb5 G#5       F5 E5 F5   F#5         F5  Bb5   G#5
E|------------------------------------|----------------------------------------|
B|------------------------------------|----------------------------------------|
G|-----------------3b-----------------|--------------------3b------------------|
D|-----2---------------------3--------|-------2-----------------------3--------|
A|-3---2--3---4-4-------3-3--1---6-6--|---3---2--3---4-4---------3-3--1----6-6-|
E|-1---0--1---2-2-------1-1------4-4--|---1---0--1---2-2---------1-1-------4-4-|
                   Hey!                                    Hey!

Solo: 
e|-------------------------------------------------------|
B|--1--4--6-----4--6--4--2--1--2--1----------------------|
G|-----------1----------------------3--1--3--5--3--1--0--|
D|-------------------------------------------------------|  (2x)
A|-------------------------------------------------------|
E|-------------------------------------------------------|
                                                                           
e|-------------------------------------------|
B|-------------------------------------------|
G|--1--0--1--0--1--0--1--0-0-----------------|
D|---------------------------3~--------------|
A|-------------------------------------------|
E|-------------------------------------------|
                                                                       
Riff 1:                                                             
And I forget just what I taste
Oh yeah, I guess it makes me smile
I found it hard, it's hard to find
Oh well, whatever, never mind

Refrão

(Distorcido)
B|---6----6----6----6----6----6---|  
G|-5----5----5----5----5----5-----|
       Hello, hello, hello, how low

    F5            Bb5    G#5           C#5
E|---------------------------------------------|
B|---------------------------------------------|
G|---------------3-3-0----------------6-6-0----| 
D|-3-3-3--x-x-x--3-3-0--6-6-6--x-x-x--6-6-0----|
A|-3-3-3--x-x-x--1-1-0--6-6-6--x-x-x--4-4-0----|
E|-1-1-1--x-x-x---------4-4-4--x-x-x-----------|

With the lights out, it's less dangerous
Here we are now, entertain us
I fell stupid, and contagious
Here we are now, entertain us

   F5   Bb5  G#5  C#5
G|----------------------| (x4)- isso vai ate o final
D|-------3--------6-6---|
A|-3-3---1---6-6--4-4---|
E|-1-1-------4-4--------|

A denial, a denial
A denial, a denial
A denial, a denial
A denial, a denial
exibições 210.983
Acordes para:
    Composição: Dave Grohl / Krist Novoselic / Kurt Cobain Colaboração e revisão:
    • Iago Morais
    • bruno misso
    • thiago silva

    0 comentários

    mostrar mais comentários
    00:00 / 00:00
    outros vídeos desta música
    repetir qualidade Automático
    Outros vídeos desta música
    00:00 / 00:00
    Automático
    Capítulos
    • Tocando a música
    • Dicas Iniciais / Equipamentos
    • Acordes da música
    • Tocando a Introdução
    • Ritmo da Introdução
    • Tocando a Primeira Parte
    • Riff 1
    • Riff 2
    • Acordes da Passagem
    • Tocando o Refrão
    • Passagem
    • Tocando o Solo
    • Solo - Parte 1 de 2
    • Solo - Parte 2 de 2
    • Encerramento
    • Ficha Técnica
    OK