Cifra Club

Aprenda

Take The Power Back

Rage Against The Machine

Tab de baixo: Principal
 intro    T T     T T     T T     T T       T T  T   T P H T   T  P  T T (x4)
G:------|------------------------------|------------------------------------|
D:-Rest-|------------------------------|*--------------5----------5--------*|
A:------|------------------------------|*--------3h5-X---5-3h5-5-----------*|
D:------|-0-0--R--0-0--R--0-0--R--0-0--|-R--0-0----------------------0-0----|

        Fig 1.                         Fig 2.
           T T  T   T P H T   T  P (x3) T T  T  T P   T   T   T
G:-----|-----------------------------|------------------------6H8--|
D:--r--|*-------------5----------5--*|-------------5------3H5------|
A:-----|*-------3h5-X---5-3h5-5-----*|-------3h5-X----3H5----------|
D:-----|---0-0-----------------------|--0-0------------------------|

                       (x5)   Fig 3.               (x3)            ring____
G:--------------|----------|---------------------------|--------------------|
D:*--Fig-1-(x3)-|-Fig-2---*|*-------------------------*|--------------------|
A:*-------------|-simile--*|*-----5-----3--4--5-------*|-----5-----3--------|
D:--------------|----------|---0-----0-----------0-0---|--0-----0-----------|
                                                                  
   Fig 4.
    T T       T T      T T       T T                          (x2)
G:-------------------------------------|--------------|----------|
D:-------------------------------------|*-Fig-1-(x3)--|--Fig-2--*|
A:-------------------------------------|*-------------|-simile--*|
D:--0-0---R---0-0---R--0-0---R---0-0---|--------------|----------|
                         
                         ring____                     (x5)
G:------------|-------------------|-------------|---------|
D:-Fig-3-(x3)-|-------------------|*-Fig-1-(x3)-|-Fig-2--*|
A:------------|----5-----3--------|*------------|-Simile-*|
D:------------|-0-----0-----------|-------------|---------|

                    (x8)                                  (x2)
G:----------------------|-----------|---------------|---------|-------------|
D:*--------------------*|-Fig-4-(x2)|*--Fig-1--(x3)-|-Fig-2--*|--Fig-3-(x3)-|
A:*--5--4--3-----------*|-----------|*--------------|-simile-*|-------------|
D:------------0--3--5---|-----------|---------------|---------|-------------|

                            (x16)
G:--------------|------------5---|
D:--------------|*--------------*|
A:----5-----3---|*-----3--------*|
D:-0-----0------|---0-----0------|

                                         (x8)
G:--------------------------------------------|
D:*------------------------------------------*|
A:*-5-4-3-XX-5-4-3-XX-5-4-3------------------*|
D:--------------------------0(0)-3h5-3h5-3h5--|



_______________________________________________________
Composição de Rage Against the Machine / Zack de la Rocha
Colaboração e revisão:
  • Hildo Junior
13.524 exibições

0 comentários

Ver todos os comentários

Conseguiu tocar?

3 Tocaram 0 Ainda não

Grave um vídeo tocando Take The Power Back e nos envie!

00:00 / 00:00
Outros vídeos desta música
Repetir Qualidade Automático
Outros vídeos desta música
00:00 / 00:00
Automático

Cifra Club Pro

Aproveite o Cifra Club com benefícios exclusivos e sem anúncios
Cifra Club Pro
Aproveite o Cifra Club com benefícios exclusivos e sem anúncios
OK