Notificações Amigos pendentes

      Red Hot Chili Peppers

      Can't Stop

      4.650 exibições
      Tom: G
      
      E|---------------------------------------------------
      B|---------------------------------------------------
      G|---------------------------------------------------   (3x)
      D|---------------------------------------------------
      A|5--7--5--7--5--7--5--7--5--7-----------------------
      E|---------------------------------------------------
      
      
      E|---------------------------------------------------
      B|---------------------------------------------------
      G|---------------------------------------------------
      D|---------------------------------7b9--7b9-5-7b9-7b9
      A|5--7--5--7--5--7--5--7--5--7-----------------------
      E|---------------------------------------------------
      
      
      E|---------------------------------------------------
      B|---------------------------------------------------
      G|---------------------------------------------------   (4x)
      D|---------------------------------------------------
      A|5--7--5--7--5--7--5--7--5--7-----------------------
      E|---------------------------------------------------
      
      
      E|---------------------------------------------------
      B|---------------------------------------------------
      G|----------------------7----------------------------
      D|------------------7b9---7b9------------------------
      A|5--7--5--7--5--7-----------------------------------
      E|---------------------------------------------------
      
      
      E|---------------------------------------------------
      B|---------------------------------------------------
      G|---------------------------------------------------   (4x)
      D|---------------------------------------------------
      A|5--7--5--7--5--7--5--7--5--7-----------------------
      E|---------------------------------------------------
      
      
      Intro: Em  D  Bm  C
      
      Riff Principal:
      
      
         Em                        D
      E|---------------------------------------------------
      B|---------------------------------------------------
      G|----7-9-------7-x-9-9-------7-9-------7-x-9-9------
      D|--------------------------0-----0-0-0---------0-0--
      A|7-7-----7-7-7-------7-7-7-------------------0------
      E|---------------------------------------------------
      
      
         Bm                      C
      E|---------------------------------------------------
      B|---------------------------------------------------
      G|--7-9-------7-x-9-9-------7--9-------7-x-9-9-------
      D|---------------------------------------------------
      A|---------------------------------------------------
      E|7-----7-7-7-------7-7-7-8------8-8-8-------8-8-8---
      
      
      Em
         Can't stop addicted to the shin dig
      D
        Cop top he says I'm gonna win big
      Bm
         Choose not a life of imitation
       C
      Distant cousin to the reservation
      
      Em
         Defunkt the pistol that you pay for
      D
        This punk the feeling that you stay for
      Bm
         In time I want to be your best friend
      C
      Eastside love is living on the westend
      
      Em
         Knock out but boy you better come to
      D
        Don't die you know the truth is some do
      Bm
         Go write your message on the pavement
       C
      Burnin' so bright I wonder what the wave meant
      
      Em
         White heat is screaming in the jungle
      D
        Complete the motion if you stumble
      Bm
         Go ask the dust for any answers
       C7M
      Come back strong with 50 belly dancers
      (Passagem para o Refrão)
      
      
         C7M
      E|7------7------7------7------7------------
      B|--8------8------8------8------8----------
      G|----9------9------9------9------9--------
      D|-----------------------------------------
      A|-----------------------------------------
      E|-----------------------------------------
      
      
      Refrão:
           G
      The world I love
        D5(9)
      The tears I drop
          Bm
      To be    part of
           C7M
      The wave can't stop
      G        D5(9)      Bm       C7M
      Ever wonder if it's all for you
      
           G
      The world I love
        D5(9)
      The trains I hopped
          Bm
      To be part of
           C7M
      The wave can't stop
       G             D5(9)        Bm   C7M
      Come and tell me when it's time to
      
      Em
         Sweetheart is bleeding in the snowcone
      D
        So smart she's leading me to ozone
      Bm
         Music the great communicator
      C
      Use two sticks to make it in the nature
      
      Em
         I'll get you into penetration
      D
        The gender of a generation
      Bm
         The birth of every other nation
       C
      Worth your weight the gold of meditation
      
      Em
         This chapter's going to be a close one
      D
        Smoke rings I know your going to blow one
      Bm
         All on a spaceship persevering
      C
      Use my hands for everything but steering
      
      Em
         Can't stop the spirits when they need you
      D
        Mop tops are happy when they feed you
      Bm
         J. Butterfly is in the treetop
       C7M
      Birds that blow the meaning into bebop
      
      Refrão:
           G
      The world I love
        D5(9)
      The tears I drop
          Bm
      To be    part of
           C7M
      The wave can't stop
      G        D5(9)      Bm       C7M
      Ever wonder if it's all for you
      
           G
      The world I love
        D5(9)
      The trains I hopped
          Bm
      To be part of
           C7M
      The wave can't stop
       G             D5(9)        Bm   C7M
      Come and tell me when it's time to
      
      Interlúdio:
      
      
            Em                      D                 D6
      E|---7-----7-----7-----7-----5-----5-----5-----7-----
      B|---8-----8-----8-----8-----7-----7-----7-----7-----
      G|x--9--x--9--x--9--x--9--x--7--x--7--x--7--x--7--x--
      D|x--9--x--9--x--9--x--9--x--7--x--7--x--7--x--7--x--
      A|x-----x-----x-----x-----x-----x-----x-----x-----x--
      E|---------------------------------------------------
      
           ↑     ↑     ↑     ↑     ↑     ↑     ↑     ↑
      
      
         Bm          Bm7   Bm     C                    C6
      E|-------------------7-------------------------------
      B|7-----7-----10-----7-----8------8------8------10---
      G|7-----7-----7------7-----9------9------9------9----
      D|9--x--9--x--9---x--9--x--10--x--10--x--10--x--10---
      A|9--x--9--x--9---x-----x--10--x--10--x--10--x--x----
      E|---x-----x------x-----x------x------x------x-------
      
        ↑     ↑     ↑      ↑     ↑      ↑      ↑      ↑
      
      
            Em                      D                 D6
      E|---7-----7-----7-----7-----5-----5-----5-----7-----
      B|---8-----8-----8-----8-----7-----7-----7-----7-----
      G|x--9--x--9--x--9--x--9--x--7--x--7--x--7--x--7--x--
      D|x--9--x--9--x--9--x--9--x--7--x--7--x--7--x--7--x--
      A|x-----x-----x-----x-----x-----x-----x-----x-----x--
      E|---------------------------------------------------
      
           ↑     ↑     ↑     ↑     ↑     ↑     ↑     ↑
      
      
         Bm          Bm7   Bm     C                    C6
      E|-------------------7-------------------------------
      B|7-----7-----10-----7-----8------8------8------10---
      G|7-----7-----7------7-----9------9------9------9----
      D|9--x--9--x--9---x--9--x--10--x--10--x--10--x--10---
      A|9--x--9--x--9---x-----x--10--x--10--x--10--x--x----
      E|---x-----x------x-----x------x------x------x-------
      
        ↑     ↑     ↑      ↑     ↑      ↑      ↑      ↑
      
      Interlúdio 2:
      
      E|-------------------------------12-----10--------------------------------
      B|-12-------12-----13-----13-------12-----10---10-----12-----12-----10----
      G|---12-------12-----12-----12-------12-----11---11-----11-----11-----11--
      D|------14------14-----14-----14-------------------12-----12-----12-----12
      A|------------------------------------------------------------------------
      E|------------------------------------------------------------------------
      
      
      E|------------------------------------------------------------------------
      B|-10-------10-----10-----10-----10-----12-----12-----12-----12-----12----
      G|---11-------11-----11-----11-----11-----12-----12-----12-----12-----12--
      D|------12------12-----12-----12-----14-----14-----14-----14-----14-----14
      A|------------------------------------------------------------------------
      E|------------------------------------------------------------------------
      
      
      E|-------------------------------12-----10--------------------------------
      B|-12-------12-----13-----13-------12-----10---10-----12-----12-----10----
      G|---12-------12-----12-----12-------12-----11---11-----11-----11-----11--
      D|------14------14-----14-----14-------------------12-----12-----12-----12
      A|------------------------------------------------------------------------
      E|------------------------------------------------------------------------
      
      
      E|-------------------------------------
      B|-10-------10-----10-----10-----10----
      G|---11-------11-----11-----11-----11--
      D|------12------12-----12-----12-----12
      A|-------------------------------------
      E|-------------------------------------
      
      
      E|-------------------------------------
      B|12-12-12-12-12-12-12-----------------
      G|12-12-12-12-12-12-12-----------------
      D|14-14-14-14-14-14-14-----------------
      A|-------------------------------------
      E|-------------------------------------
      
        ↑  ↓  ↑  ↓  ↑  ↓  ↑
      
      Interlúdio:
      Em                   D
         Wait a minute I'm   passing out
                 D6  Bm Bm7   Bm    C C6
        Win or lose     just like you
      Em                   D
         Far more shocking than anything
                 D6  Bm Bm7   Bm    C C6
        I ever knew     how about you
      
      Interlúdio 2:
         Ten more reasons
      
         Why I need somebody new just like you
      
         Far more shocking than anything I ever knew
      
        Right on cue
      
      Solo:
      
      E|--------------------------------|---------------|
      B|17b19r17----17b19r17--19b20r19--|-15h17--15h17--|
      G|--------------------------------|------18-----18| (4x)
      D|--------------------------------|---------------|
      A|--------------------------------|---------------|
      E|--------------------------------|---------------|
      
      
      E|-------------15-17b19r17---15-17b19r17--15-14-15---|
      B|17b19r17---17------------17---------------------17-|
      G|---------------------------------------------------|
      D|---------------------------------------------------|
      A|---------------------------------------------------|
      E|---------------------------------------------------|
      
      
      Em
         Can't stop addicted to the shin dig
      D
        Cop top he says I'm gonna win big
      Bm
         Choose not a life of imitation
       C
      Distant cousin to the reservation
      
      Em
         Defunkt the pistol that you pay for
      D
        This punk the feeling that you stay for
      Bm
         In time I want to be your best friend
      C
      Eastside love is living on the westend
      
      Em
         Knock out but boy you better come to
      D
        Don't die you know the truth is some do
      Bm
         Go write your message on the pavement
       C
      Burnin' so bright I wonder what the wave meant
      
      Em
         Kick start the golden generator
      D
        Sweet talk but don't intimidate her
      Bm
         Can't stop the gods from engineering
       C
      Feel no need for any interfering
      
      Em
         Your image in the dictionary
      D
        This life is more than ordinary
      Bm
         Can I get two maybe even three of these
       C
      Come from space To teach you of the pliedes
      
      Can't stop the spirits when they need you
      This life is more than just a read through
        Composição: Anthony Kiedis / Chad Smith / Flea / John FruscianteColaboração e revisão:
        • Jorge

        Comentários 0

        140 .
        140 cancelar
        0:00 / 0:00

        Capítulos

          1 versão de bateria exibições contribuição e correção
          1 versão de partiturasformatodownloadscontribuição
          play/pausefechar subir/descer velocidade
          6ª corda E5ª corda A4ª corda D3ª corda G2ª corda B1ª corda E
            acordes
            publicidade
            fechar
            ok