Cifra Club

Crosstown Traffic

Red Hot Chili Peppers

Tab de baixo: Principal
exibições 4.546
Intro
G|--------------------------------------------------------|
D|-6h8-6h8-6h8-6h8-6h8--6h8-6h8-6h8-6h8-6h8---------------|
A|--------------------------------------------------------|
E|--------------------------------------------------------|

Chorus
G|------------------------------5-------------------------|
D|------------5------3-3--3-5h7---7-5---------------------|
A|-3-3--3-5h7---7-5---------------------------------------|
E|--------------------------------------------------------|

Last time on chorus
G|------------------------------5-------------------------|
D|------------5------3-3--3-5h7---7-5---------------------|
A|-3-3--3-5h7---7-5---------------------------------------|
E|--------------------------------------------------------|

G|--------------------------------------------------------|
D|-6h8-6h8-6h8-6h8-6h8--6h8-6h8-6h8-6h8-6h8---------------|
A|--------------------------------------------------------|
E|--------------------------------------------------------|

Verse
G|--------------------------------------------------------|
D|------3-3-------3-3--------------------1-1-1-1-1-1-1-1--|
A|-3-3-------3-3-------1-1-1-1-1-1-1-1-1------------------|
E|--------------------------------------------------------|

G|--------------------------------------------------------|
D|--------------------------------------------------------|
A|--------------------------------------------------------|
E|-4-4-4-4-4-4-4-4-33-33-33-33-33-3-----------------------|

Solo
G|-----------------------------------------6--------------|
D|-3h5-555-55--3h5-555-55--3h5-555-55--6-8---8-6----------|
A|-----------------------------------------------8-6------|
E|--------------------------------------------------------|

G|--------------------------------------------------------|
D|-3h5-555-55--3h5-555-55--3h5-3--------------------------|
A|-------------------------------5-3----------------------|
E|-----------------------------------5-3-1-0--------------|

Last chorus (do this bit a few times)
G|------------------------------5-------------------------|
D|------------5------3-3--3-5h7---7-5---------------------|
A|-3-3--3-5h7---7-5---------------------------------------|
E|--------------------------------------------------------|

G|--------------------------------------------------------|
D|-6h8-6h8-6h8-6h8-6h8--6h8-6h8-6h8-6h8-6h8---------------|
A|--------------------------------------------------------|
E|--------------------------------------------------------|

G|------------------------------5-------------------------|
D|------------5------3-3--3-5h7---7-5---------------------|
A|-3-3--3-5h7---7-5---------------------------------------|
E|--------------------------------------------------------|

G|--------------------------------------------------------|
D|-6h8-6h8-6h8-6h8-6h8------------------------------------|
A|--------------------------------------------------------|
E|--------------------------------------------------------|

Outro
G|------------------------------5-------------------------|
D|------------5------3-3--3-5h7---7-5---------------------|
A|-3-3--3-5h7---7-5---------------------------------------|
E|--------------------------------------------------------|

G|--------------------------------------------------------|
D|-6h8-6h8-6h8-6h8-6h8--6h8-6h8-6h8-6h8-6h8---------------|
A|--------------------------------------------3-----------|
E|--------------------------------------------------------|

G|-------------------3-4-5~-------------------------------|
D|-----2-2-3-3-4-4-5--------------------------------------|
A|-3-3----------------------------------------------------|
E|--------------------------------------------------------|
Composição: Jimi HendrixColaboração e revisão:
  • Renan Neves

0 comentários

    mostrar mais comentários

    Conseguiu tocar?

    0tocaram0ainda não

    Grave um vídeo tocando Crosstown Traffic e mande pra gente!

    00:00 / 00:00
    outros vídeos desta música
    repetirqualidadeautomática
    Outro vídeos desta música
      00:00 / 00:00
      automática
      OK