Cifra Club

Aprenda

Introduce The Metric System In Time

The Hives

Cifra: Principal (violão e guitarra)
Tom: A#
Lead Guitar (I)-Vigilante Carlstroem
Rhythm Guitar (II)-Nicholaus Arson

Guitar I-Middle
Guitar II-Treble

Key:
x-mute

Gtr. I
Intro:
         G5
e-----------------|
b-----------------|
g-----------------|
D-----------------|
A---5-5-5-5-5-5---|
E---3-3-3-3-3-3---|

Gtr. I & II
Chorus:
          G5      Eb5
e-----------------------|
b-----------------------|
g---xx-xx-55-xx-xx-88---|
D---xx-xx-55-xx-xx-88---|
A---xx-xx-33-xx-xx-66---|
E-----------------------|

Chorus x8 w/ mutes at end

Gtr. I
Fill: 
          C5
e-----------------|
b-----------------|
g-----------------|
D---x-555-x-555---|
A---x-333-x-333---|
E-----------------|

Verse (no guitar parts but heavy fuzz)

Gtr. I & II
Bridge:
                  C5
e-------------------------------------|
b-------------------------------------|
g---5-5-5-5-5-5-5-5-5-5-5-5-5-5-5-5---|
D---5-5-5-5-5-5-5-5-5-5-5-5-5-5-5-5---|
A---3-3-3-3-3-3-3-3-3-3-3-3-3-3-3-3---|
E-------------------------------------|

Verse Fuzz...

Fill x4

Bridge x1

Chorus x4 w/ mutes at end

Bridge x1

Fill x4

Bridge x1

Chorus x8

Gtr. I
Outro:
         C5
e-------------|
b-------------|
g---xx-xx-5---|
D---xx-xx-5---|
A---xx-xx-3---|
E-------------|
Composição de Randy Fitzsimmons
1.678 exibições
    • ½ Tom
    • A
    • Bb
    • B
    • C
    • Db
    • D
    • Eb
    • E
    • F
    • F#
    • G
    • Ab
  • Adicionar à lista

    0 comentários

    Mostrar mais comentários

    Conseguiu tocar?

    0 Tocaram 0 Ainda não

    Grave um vídeo tocando Introduce The Metric System In Time e mande pra gente!

    00:00 / 00:00
    outros vídeos desta música
    repetir qualidade Automático
    Outros vídeos desta música
    00:00 / 00:00
    Automático
    OK