Cifra Club

Eu Errei

Tiago Iorc

Cifra: Principal (violão e guitarra)
tom: C
Intro:
E|----------------------------------------------------------------------|
B|-------12---------12-------10--------8-------------8---------8h10s7---|
G|-------0------0---------0---------0-------0-----0--------0------------|
D|----------------------------------------------------------------------|
A|----------------------------------------------------------------------|
E|----------------------------------------------------------------------|

E|------------------------------------------------------------|
B|--------7-----7h8s5--------------5------5h7s3---------------|
G|-0---0------0------------0----0------0----------------------|
D|------------------------------------------------------------|
A|------------------------------------------------------------|
E|------------------------------------------------------------|

E|------------------------------0-------------------------------------------|
B|----------3-----3h5s6------6-----6---------6s5s3s1----------1-------------|
G|-0-----0-----0-----------7----------7---------------------0---0---0-------|
D|-----------------------0---------------0----------------2-------2---2-----|
A|--------------------------------------------------------------------------|
E|--------------------------------------------------------------------------|

E|-------------------------------------------------------------------------------|
B|-------1h0-----1h0--------------0--------0----1h0-----------------0----------0-|
G|-------0-------0-------------0----0----------------2h0----------0----0-----0---|
D|-------2h0-----2h0---------0--------0------------------2h0----0--------0-------|
A|-------------------------------------------------------------------------------|
E|-------------------------3--------------------3----------------------------3---|

G
Eu errei por gostar um pouco de mais
     F             C
E amei, se é que amei
     G
Nem sei
G
Esqueci de cuidar um pouco de mim
   F           C
E aí, desapareci
     G
Em ti

Refrão:
 C                         Bm7
Dei tempo ao tempo, tempo demais
             D                  C
Tenho tempo de mais, tempo de mais
                                 G
Pouco vale o tempo se não com você

 C                         Bm7
Dei tempo ao tempo, tempo demais
             D                  C
Tenho tempo de mais, tempo de mais
                                *intro
Pouco vale o tempo se não com você

(Intro)
G
Eu errei insisti em mudar
                 F
O que via em ti
            C      G
Até que me vi sem ti

Refrão (2x):
 C                         Bm7
Dei tempo ao tempo, tempo demais
             D                  C
Tenho tempo de mais, tempo de mais
                                 G
Pouco vale o tempo se não com você

 C                         Bm7
Dei tempo ao tempo, tempo demais
             D                  C
Tenho tempo de mais, tempo de mais
                                *outro 2ª vez
Pouco vale o tempo se não com você

Outro:
E|------------------------------------------------------------------|
B|----12------12-----12------10----10----10-------8-----8----8------|
G|----0----0------0-----0----0---0-----0----0-----0---0----0---0----|
D|------------------------------------------------------------------|
A|------------------------------------------------------------------|
E|------------------------------------------------------------------|

E|------------------------------------------------------------|
B|--7-----7----7h8s5------5----5-------5-----5----5-----------|
G|--0---0---0------0---0----0----0-----0---0---0----0---------|
D|------------------------------------------------------------|
A|------------------------------------------------------------|
E|------------------------------------------------------------|

E|------------------------------------------------------------|
B|--5-----5----5------5-----5----5----------------------------|
G|--0---0---0----0----0---0---0----0--------------------------|
D|------------------------------------------------------------|
A|------------------------------------------------------------|
E|------------------------------------------------------------|

Ah, ah-ah
Eu errei, me passei, tenho que me encontrar
Pouco vale o tempo se não com você
Eu errei, já nem sei que foi querendo acertar
Pouco vale o tempo se não com você
00:00 / 00:00
Outros vídeos desta música
Repetir
Outros vídeos desta música
Composição de Tiago Iorc
Colaboração e revisão:
72.596 exibições
    • ½ Tom
    • A
    • Bb
    • B
    • C
    • Db
    • D
    • Eb
    • E
    • F
    • F#
    • G
    • Ab
  • Adicionar à lista

    0 comentários

    Ver todos os comentários

    Conseguiu tocar?

    16 Tocaram 30 Ainda não

    Grave um vídeo tocando Eu Errei e nos envie!

    Entre para oCifra Club PRO

    Tenha acesso a benefícios exclusivos no App e no Site

    • Chega de anúncios

    • Prioridade de compra em lançamentos

    • Mais recursos no app do Afinador

    • Atendimento Prioritário

    • Descontos nos produtos Cifra Club

    • Ajude a produzir mais conteúdo

    00:00 / 00:00

    Cifra Club Pro

    Aproveite o Cifra Club com benefícios exclusivos e sem anúncios
    Cifra Club Pro
    Aproveite o Cifra Club com benefícios exclusivos e sem anúncios
    OK