Cifra Club

My Girl

Tiago Iorc

Tab de baixo: Principal
exibições 25.067
Intro:
       PM.......     PM.......
G|---x-------------x---------------------------------|
D|---x-------4-7---x-------4-7-----------------------|
A|---x---4-7-------x---4-7---------------------------|
E|-5-x-7---------5-x-7-------------------------------|

Primeira parte:
       PM.......     PM.......
G|---x-------------x-------4-6-----------------------|
D|---x-------4-7---x---4-7---------------------------|
A|---x---4-7-----5-x-7-------------------------------| 
E|-5-x-7-----------x---------------------------------|

I've got sunshine
On a cloudy day
When it's cold outside
I've got the month of May

Refrão:
G|-9--x----11-x----11-x----13-X----------------------|
D|-11-x----12-x----12-x----14-X----------------------|
A|-12-x-12-14-x-14----x-------x----------------------| 
E|----x-------x----10-x-10-12-x-12-------------------|

                                    PM...
G|-14-x-14-x----13-x-14-x-16-x-16-x-13-13-x----------|
D|-14-x-14-x-14----x-14-x-12-x-12-x-14-14-x----------|
A|-0--x-0--x----0--x-0--x-14-x-14-x-------x----------|
E|----x----x-------x----x----x----x-0--0--x----------|

(...)
Well, I guess you'll say
What can make me feel this way?
My girl
Talkin' 'bout my girl, my Girl

Segunda parte:
       PM.......     PM.......
G|---x-------------x-------4-6-----------------------|
D|---x-------4-7---x---4-7---------------------------|
A|---x---4-7-----5-x-7-------------------------------| 
E|-5-x-7-----------x---------------------------------|

I've got so much honey
The bees envy me
I've got a sweeter song
Than the birds from the trees

Segundo refrão:
G|-9--x----11-x----11-x----13-X----------------------|
D|-11-x----12-x----12-x----14-X----------------------|
A|-12-x-12-14-x-14----x-------x----------------------| 
E|----x-------x----10-x-10-12-x-12-------------------|

                                    PM...
G|-14-x-14-x----13-x-14-x-16-x-16-x-13-13-x----------|
D|-14-x-14-x-14----x-14-x-12-x-12-x-14-14-x----------|
A|-0--x-0--x----0--x-0--x-14-x-14-x-------x----------| 
E|----x----x-------x----x----x----x-0--0--x----------|

(...)
Well, I guess you'll say
What can make me feel this way?
My girl
Talkin' 'bout my girl, my Girl

Interlúdio:
       PM.......     PM.......
G|---x-------------x---------------------------------|
D|---x-------4-7---x-------4-7-----------------------|
A|---x---4-7-------x---4-7---------------------------|
E|-5-x-7---------5-x-7-------------------------------|

(...)
Ooooh, Hoooo.

Terceira parte:
      PM  PM  PM  PM  PM  PM  PM  PM
G|-6-x-6-x-7-x-7-x-6-x-6-x-7-x-7-x-------------------|
D|-7-x-7-x-7-x-7-x-7-x-7-x-7-x-7-x-------------------|
A|---x---x---x---x---x---x---x---x-------------------|
E|---x---x---x---x---x---x---x---x-------------------|

(...)
I've got sunshine
On a cloudy day
When it's cold outside
I've got the month of May

Terceiro refrão:
G|-9--x----11-x----11-x----13-X----------------------|
D|-11-x----12-x----12-x----14-X----------------------|
A|-12-x-12-14-x-14----x-------x----------------------| 
E|----x-------x----10-x-10-12-x-12-------------------|

                                    PM...
G|-14-x-14-x----13-x-14-x-16-x-16-x-13-13-x----------|
D|-14-x-14-x-14----x-14-x-12-x-12-x-14-14-x----------|
A|-0--x-0--x----0--x-0--x-14-x-14-x-------x----------| 
E|----x----x-------x----x----x----x-0--0--x----------|

(...)
Well, I guess you'll say
What can make me feel this way?
My girl
Talkin' 'bout my girl, my Girl

Final:
       PM.......     PM.......
G|---x-------------x-------4-6-----------------------|
D|---x-------4-7---x---4-7---------------------------|
A|---x---4-7-----5-x-7-------------------------------| 
E|-5-x-7-----------x---------------------------------|

       PM.......
G|---X-----------4-6---------------------------------|
D|---x-------4-7-----7-------------------------------|
A|---x---4-7---------0-------------------------------|
E|-5-x-7---------------------------------------------|

(...)
Ooooh, Hoooo.
My girl...
Talkin' 'bout my girl.
Composição: Ronald White / Smokey RobinsonColaboração e revisão:
  • Filipe Marks

0 comentários

    mostrar mais comentários

    Conseguiu tocar?

    7tocaram0ainda não

    Grave um vídeo tocando My Girl e mande pra gente!

    00:00 / 00:00
    outros vídeos desta música
    repetirqualidadeautomática
    Outro vídeos desta música
      00:00 / 00:00
      automática
      Capítulos
      • Início
      • Tocando a música
      • Tocando Introdução
      • Ensinando Introdução
      • Tocando Primeira Parte
      • Ensinando Primeira Parte
      • Tocando Refrão
      • Acordes do Refrão
      • Ensinando Refrão
      • Acordes da Terceira Parte
      • Tocando Terceira Parte
      • Ensinando Terceira Parte
      • Tocando Final
      • Ensinando Final
      • Encerramento
      OK