Cifra Club

Tema da Triforce

Zelda

Cifra: Principal (violão e guitarra)
Selo Cifra Club: esta cifra foi revisada para atender aos critérios oficiais da nossa Equipe de Qualidade.
tom: C
 Gtr I
      ~~                     ~~        ~~
|-12---------------------12---------------|2
|----12---------------------12------------|v
|--------14-16------------------14-16-----|e
|--------------14-12-14---------------14--|z
|-----------------------------------------|e
|-----------------------------------------|s

      ~~                                    ~
|----------------------------------------------|
|-13-------------------13----------------------|
|----12--10h12------------12-10h12-------10-9--|
|--------------10-8-10-------------10-11-------|
|----------------------------------------------|
|----------------------------------------------|

  ~~~~~~~~~   ~    ~   ~                                   ~~
|---------------------------------------------------10-12--------------| (repete, etc.)
|-----10-8---------------------------------10h12h13-------12-----------|
|-9-7-----------12-7-9-7-------------10h12--------------------14-16----|
|----------10-9----------10-10h12h14-----------------------------------|
|----------------------------------------------------------------------|
|----------------------------------------------------------------------|
Outros vídeos desta música
5.691 exibições
    • ½ Tom
    • A
    • Bb
    • B
    • C
    • Db
    • D
    • Eb
    • E
    • F
    • F#
    • G
    • Ab
  • Adicionar à lista

Afinação da cifra

Afinador online

    0 comentários

    Ver todos os comentários

    Entre para o Cifra Club PRO

    Tenha acesso a benefícios exclusivos no App e no Site

    • Chega de anúncios

    • Mais recursos no app do Afinador

    • Atendimento Prioritário

    • Aumente seu limite de lista

    • Ajude a produzir mais conteúdo

    Cifra Club Pro

    Aproveite o Cifra Club com benefícios exclusivos e sem anúncios
    Cifra Club Pro
    Aproveite o Cifra Club com benefícios exclusivos e sem anúncios
    OK