Cifra Club

Zelda 2 - Tema Dos Templos

Zelda

Cifra: Principal (violão e guitarra)
Selo Cifra Club: esta cifra foi revisada para atender aos critérios oficiais da nossa Equipe de Qualidade.
tom: D
|------------------------------------------------------------------|
|--3-----3-----3---4-----4-----4---5-----5-----5---4-----4-----4---|
|----3-----3-----3---3-----3-----3---3-----3-----3---3-----3-----3-|
|------5-----5---------5-----5---------5-----5---------5-----5-----|
|------------------------------------------------------------------|
|------------------------------------------------------------------|

Intro.:
======
|-3-3---3---3-----6-----5-----4----|
|----------------------------------|
|----------------------------------|
|----------------------------------|
|----------------------------------|
|----------------------------------|
  
|----------------------------------|
|--3-3---3---3-----6-----5-----4---|
|----------------------------------|
|----------------------------------|
|----------------------------------|
|----------------------------------|

|-----------------10-11------------11---12------------12---11---15-13---11--|
|------------10-11-----------11-----------------11--------------------------|
|--12-----------------------------------------------------------------------|
|---------------------------------------------------------------------------|
|---------------------------------------------------------------------------|
|---------------------------------------------------------------------------|
  
|-10-10---10---10----------------------10-10---10---10-11-------------------|
|------------------13-------------------------------------------------------|
|---------------------------------------------------------------------------|
|---------------------------------------------------------------------------|
|---------------------------------------------------------------------------|
|---------------------------------------------------------------------------|
  
|---------------------------------------------------------------------------|
|--6--6----6----6--6--------------------6--6----6----6--6-------------------|
|---------------------------------------------------------------------------|
|---------------------------------------------------------------------------|
|---------------------------------------------------------------------------|
|---------------------------------------------------------------------------|

|-10-10---10---10----------------------10-10---10---10-13--------11-----10--|
|------------------13-------------------------------------------------------|
|---------------------------------------------------------------------------|
|---------------------------------------------------------------------------|
|---------------------------------------------------------------------------|
|---------------------------------------------------------------------------|
  
|---------------------------------------------------------------------------|
|--6--6----6----6--6--------------------6--6----6----6--6---------6------6--|
|---------------------------------------------------------------------------|
|---------------------------------------------------------------------------|
|---------------------------------------------------------------------------|
|---------------------------------------------------------------------------|

|-----------------10-11------------11---12------------12---11---15-13---11--|
|------------10-11-----------11-----------------11--------------------------|
|--12-----------------------------------------------------------------------|
|---------------------------------------------------------------------------|
|---------------------------------------------------------------------------|
|---------------------------------------------------------------------------|
  
|----------------------------------------------|
|--13-10-11-13---11-10---10-------10-----------|
|---------------------------11-12------12-11---|
|----------------------------------------------|
|----------------------------------------------|
|----------------------------------------------|
  
|----------------------------------------------|
|--7--------7-------7----7--------7-------7----|
|-----5--------5------5-----5--------5-------5-|
|--------7---------------------7---------------|
|----------------------------------------------|
|----------------------------------------------|
  (spread out to line up w/ guitar 1)

|-13----10-11----10----------------------10-11----|
|-----13-------------13----13----11-13------------|
|-----------------------------13------------------|
|-------------------------------------------------|
|-------------------------------------------------|
|-------------------------------------------------|

|-------------------------------------------------|
|--------6--------6--------------6--------6-------|
|-----5--------5--------5-----5--------5--------5-|
|--6--------6--------6-----6--------6--------6----|
|-------------------------------------------------|
|-------------------------------------------------|

|----------------------------------------------|
|--13-10-11-13---11-10---10-------10-----------|
|---------------------------11-12------12-11---|
|----------------------------------------------|
|----------------------------------------------|
|----------------------------------------------|

|----------------------------------------------|
|--7--------7-------7----7--------7-------7----|
|-----5--------5------5-----5--------5-------5-|
|--------7---------------------7---------------|
|----------------------------------------------|
|----------------------------------------------|

|------------------------------------------|
|----------------------------------10---13-|
|-----------------------------11-----------|
|--12-12---13---------12-12----------------|
|------------------------------------------|
|------------------------------------------|
  
|------------------------------------------|
|---------------------------------------7--|
|----------------------------------7-------|
|--7--7----7----------7--7----7------------|
|------------------------------------------|
|------------------------------------------|

Crazy arpeggios part:
=====================
|-10----------------------------10--11--13---|
|-------------13---11-10--11-13--------------|
|--------------------------------------------|
|--------------------------------------------|
|--------------------------------------------|
|--------------------------------------------|

|-13---------11---10-11--10-----10--11--13---|
|----------------------------13--------------|
|--------------------------------------------|
|--------------------------------------------|
|--------------------------------------------|
|--------------------------------------------|

|-15------------------------10--12--13--15---|
|------------------10-12--13-----------------|
|-------------12-----------------------------|
|--------------------------------------------|
|--------------------------------------------|
|--------------------------------------------|

|-13---------11---10-11--10-----10--11--13---|
|----------------------------13--------------|
|--------------------------------------------|
|--------------------------------------------|
|--------------------------------------------|
|--------------------------------------------|

Repeat that part, then:

|-10-10---10---10----------------------10-10---10---10-11-------------------|
|------------------13-------------------------------------------------------|
|---------------------------------------------------------------------------|
|---------------------------------------------------------------------------|
|---------------------------------------------------------------------------|
|---------------------------------------------------------------------------|

|---------------------------------------------------------------------------|
|--6--6----6----6--6--------------------6--6----6----6--6-------------------|
|---------------------------------------------------------------------------|
|---------------------------------------------------------------------------|
|---------------------------------------------------------------------------|
|---------------------------------------------------------------------------|

|-10-10---10---10----------------------10-10---10---10-13--------11-----10--|
|------------------13-------------------------------------------------------|
|---------------------------------------------------------------------------|
|---------------------------------------------------------------------------|
|---------------------------------------------------------------------------|
|---------------------------------------------------------------------------|

|---------------------------------------------------------------------------|
|--6--6----6----6--6--------------------6--6----6----6--6---------6------6--|
|---------------------------------------------------------------------------|
|---------------------------------------------------------------------------|
|---------------------------------------------------------------------------|
|---------------------------------------------------------------------------|

00:00 / 00:00
Outros vídeos desta música
Repetir
Outros vídeos desta música
2.418 exibições
    • ½ Tom
    • A
    • Bb
    • B
    • C
    • Db
    • D
    • Eb
    • E
    • F
    • F#
    • G
    • Ab
  • Adicionar à lista

Afinação da cifra

Afinador online

    0 comentários

    Ver todos os comentários

    Entre para o Cifra Club PRO

    Tenha acesso a benefícios exclusivos no App e no Site

    • Chega de anúncios

    • Mais recursos no app do Afinador

    • Atendimento Prioritário

    • Aumente seu limite de lista

    • Ajude a produzir mais conteúdo

    00:00 / 00:00

    Cifra Club Pro

    Aproveite o Cifra Club com benefícios exclusivos e sem anúncios
    Cifra Club Pro
    Aproveite o Cifra Club com benefícios exclusivos e sem anúncios
    OK