Cifra Club

Aprenda

Electric Funeral

Black Sabbath

Tab de baixo: Principal
Intro:

G|-----9--7----------------|     G|-----9--7-----------------|
D|----------9----7\--------|     D|----------9----7-8\-------|
A|-7-7---------------------|     A|-7-7----------------------|
E|-------------------2-3-2-| 2x  E|--------------------2-3-2-| 1x

G|-----9--7----------------|
D|----------9----7\--------|
A|-7-7---------------------|
E|-------------------2-3-2-| 1x

Verso:

G|-------------|     G|-------------------|
D|---9~~8~~7-5-|     D|---------9~~8~~7-5-|
A|-7-----------|     A|-7-7-7-7-----------|
E|-------------| 1x  E|-------------------| 7x

(Riff da Intro)
(Riff do Verso)
(Riff da Intro)

Pré-Ponte:
G|----------------------------------------------------------------------|
D|.--------------------------------------------------------------------.|
A|.-7-7-7-7-7-7-7-7-7-7-7-7-7-7-7-7-7-7-7-7-7-7-7-7-7-7-7-7-7-7-7-7-7--.|
E|----------------------------------------------------------------------|

          
G|-------|
D|-------| (Segura a nota)
A|-7-----|
E|-------|


Ponte/Interlúdio:

G|------------------|---------------|   G|---------7-9-|--------------|
D|----------5-5-5-0-|-------5-5-5-0-|   D|---5-7-9-----|---6-7-8-7-5--|
A|-2/-7-5-7---------|-7-5-7---------|   A|-7-----------|-7------------|
E|------------------|---------------|   E|-------------|--------------| 2x

G|---------------|     G|---------7-9-|-------------|
D|-------5-5-5-0-|     D|---5-7-9-----|---6-7-8-7-5-|
A|-7-5-7---------|     A|-7-----------|-7-----------|
E|---------------| 4x  E|-------------|-------------| 2x

G|-------------|      G|--------------|      G|------------|-------|
D|-------------|      D|---------5----|      D|---------5~-|-------|
A|-7-6-5-------|      A|-5-5-5-7---7--|      A|-5-5-5-7----|-------|
E|-------7-6-5-| 4x   E|--------------| 2x   E|------------|-------|
"Electric funeral."

(Riff da Intro)
(Riff do Verso)
(Riff da Intro)
(Riff do Verso até Fade Out)
Composição de Bill Ward / Geezer Butler / Ozzy Osbourne / Tony Iommi
Colaboração e revisão:
  • Jason Voorhees
2.636 exibições

0 comentários

Ver todos os comentários

Conseguiu tocar?

1 Tocaram 0 Ainda não

Grave um vídeo tocando Electric Funeral e nos envie!

00:00 / 00:00
Outros vídeos desta música
Repetir Qualidade Automático
Outros vídeos desta música
00:00 / 00:00
Automático

Cifra Club Pro

Aproveite o Cifra Club com benefícios exclusivos e sem anúncios
Cifra Club Pro
Aproveite o Cifra Club com benefícios exclusivos e sem anúncios
OK