Cifra Club

Aprenda

Canção para Amigos

Dead Fish

Tab de baixo: Principal
Intro/Refrão
G |------------------------------------------------||
D |------------------------------------------------||
A |-3-3-3-5-5-5-5-5-8---------8---------8----------||
E |-------------------6-6-6-6---8-8-8-8---8-8-8-8--||

Solo do Baixo
G |----------------------------------------------------------------||
D |--------7-5-4-5-4-0-5-4-0------14-12-11-11-12-11-11-12-11-11----||
A |--5-5-5-------------------5/12----------------------------------||
E |----------------------------------------------------------------||

Verso 4x
G |---------------------------||
D |---------------------------||
A |--5-5-x-5-5-5---8-7---8-7--||
E |--------------------8------||

Verso (2) 4x
G |--------------------------------------||
D |--------------------------------------||
A |-5-5-5-5-5-5-8-8-8-8-8---------8------||
E |-----------------------6-6-6-6---8-8--||

Ponte 2x
G |----------------||
D |----------------||
A |-3-3-x-3-3-3-x--||
E |----------------||

Verso (3) 4x
G |----------------||
D |----------------||
A |--5~--3~--1~----||
E |----------------||

Ponte 2x
G |----------------||
D |----------------||
A |-3-3-x-3-3-3-x--||
E |----------------||

Intro/Refrão
G |------------------------------------------------||
D |------------------------------------------------||
A |-3-3-3-5-5-5-5-5-8---------8---------8----------||
E |-------------------6-6-6-6---8-8-8-8---8-8-8-8--|| 

Verso 4x
G |---------------------------||
D |---------------------------||
A |--5-5-x-5-5-5---8-7---8-7--||
E |--------------------8------||

Verso (2) 4x
G |--------------------------------------||
D |--------------------------------------||
A |-5-5-5-5-5-5-8-8-8-8-8---------8------||
E |-----------------------6-6-6-6---8-8--||

Ponte 2x
G |----------------||
D |----------------||
A |-3-3-x-3-3-3-x--||
E |----------------||

Verso (3) 4x
G |----------------||
D |----------------||
A |--5~--3~--1~----||
E |----------------||

Intro/Refrão
G |------------------------------------------------||
D |------------------------------------------------||
A |-3-3-3-5-5-5-5-5-8---------8---------8----------||
E |-------------------6-6-6-6---8-8-8-8---8-8-8-8--|| 

Ponte (2) 4
G |-------------------------------------------||
D |-------------------------------------------||
A |--3/5-5-5-5-5/1-1-1-1-1/3-3-3-3-1/3-3-3-3--||
E |-------------------------------------------||

Intro/Refrão até o fim
G |------------------------------------------------||
D |------------------------------------------------||
A |-3-3-3-5-5-5-5-5-8---------8---------8----------||
E |-------------------6-6-6-6---8-8-8-8---8-8-8-8--|| 

Fim
G |---------------||
D |---------------||
A |-3-3-3-5-5-~~~-||
E |---------------||

_______________________________________________________
Contribuição: Rennan Andrello(rennan_andrello@hotmail.com)
Composição de Rodrigo
4.092 exibições

0 comentários

Mostrar mais comentários

Conseguiu tocar?

0 Tocaram 0 Ainda não

Grave um vídeo tocando Canção para Amigos e mande pra gente!

00:00 / 00:00
outros vídeos desta música
repetir qualidade Automático
Outros vídeos desta música
00:00 / 00:00
Automático

Cifra Club Pro

Aproveite o Cifra Club com benefícios exclusivos e sem anúncios
Cifra Club Pro
Aproveite o Cifra Club com benefícios exclusivos e sem anúncios
OK