Cifra Club

Aprenda

Afterlife

Dream Theater

Cifra: Principal (violão e guitarra)
tom: Db
E||------------------|------------------|----------------------------------|
B||------------------|------------------|----------------------------------|
G||------------------|------------------|----------------------------------|
D||------------------|------------------|--------------------------6-6-----|
A||------------------|------------------|--4-4-4-4-4-4-7-7-4-4-4-4-----5-5-|
E||------------------|------------------|----------------------------------|

----------------------------------|----------------------------------|
----------------------------------|----------------------------------|
----------------------------------|----------------------------------|
------4-4---------7-7-----6-6-----|--------------------------6-6-----|
--5-5-----5-5-5-5-----5-5-----5-5-|--4-4-4-4-4-4-7-7-4-4-4-4-----4-4-|
----------------------------------|----------------------------------|

---------------------|----------------------------------|
---------------------|----------------------------------|
---------------------|--------------------------1-1-----|
--4------2-----------|--------------2-2-------------0-0-|
--2------0------6----|--4-4-4-4-4-4-----4-4-4-4---------|
----------------4----|----------------------------------|

----------------------------------|----------------------------------|
----------------------------------|----------------------------------|
------------------2-2-----1-1-----|--------------------------1-1-----|
--0-0-4-4-0-0-0-0-----0-0-----0-0-|--------------2-2-----------------|
----------------------------------|--4-4-4-4-4-4-----4-4-4-4-----4-4-|
----------------------------------|----------------------------------|

---------------------|----------------------------------|
---------------------|----------------------------------|
---------------------|--------------------------1-1-----|
--4------2-----------|--------------2-2-------------0-0-|
--2------0------6----|--4-4-4-4-4-4-----4-4-4-4---------|
----------------4----|----------------------------------|

----------------------------------|----------------------------------|
----------------------------------|----------------------------------|
------------------2-2-----1-1-----|--------------------------1-1-----|
--0-0-4-4-0-0-0-0-----0-0-----0-0-|--------------2-2-----------------|
----------------------------------|--4-4-4-4-4-4-----4-4-4-4-----4-4-|
----------------------------------|----------------------------------|

---------------------|----------------------------------|
---------------------|----------------------------------|
---------------------|--------------------------1-1-----|
--4------2-----------|--------------2-2-------------0-0-|
--2------0------6----|--4-4-4-4-4-4-----4-4-4-4---------|
----------------4----|----------------------------------|

----------------------------------|------------------------|
----------------------------------|------------------------|
------------------2-2-----1-1-----|-----------4----4----4--|
--0-0-4-4-0-0-0-0-----0-0-----0-0-|-----0-----4----4----4--|
----------------------------------|--4-----4--2----2----2--|
----------------------------------|------------------------|

----------------------|----------------------------------|
-----------------0----|----------------------------------|
------------2---------|--------------------------1-1-----|
------------0----2----|--------------2-2-----------------|
----4----2------------|--4-4-4-4-4-4-----4-4-4-4-----4-4-|
----2----0------------|----------------------------------|

----------------------------------|----------------------------------|
----------------------------------|----------------------------------|
------------------2-2-----1-1-----|--------------------------1-1-----|
--0-0-4-4-0-0-0-0-----0-0-----0-0-|--------------2-2-----------------|
----------------------------------|--4-4-4-4-4-4-----4-4-4-4-----4-4-|
----------------------------------|----------------------------------|

----------------------------------|----------------------------------|
----------------------------------|----------------------------------|
------------------2-2-----1-1-----|--------------------------1-1-----|
--0-0-4-4-0-0-0-0-----0-0-----0-0-|--------------2-2-----------------|
----------------------------------|--4-4-4-4-4-4-----4-4-4-4-----4-4-|
----------------------------------|----------------------------------|

----------------------------------|------------------------|
----------------------------------|------------------------|
------------------2-2-----1-1-----|-----------4----4----4--|
--0-0-4-4-0-0-0-0-----0-0-----0-0-|-----0-----4----4----4--|
----------------------------------|--4-----4--2----2----2--|
----------------------------------|------------------------|

---------------------------|-----------------------|---------------------------|
-------------3----3--------|--2--------------------|---------------------------|
--4--4--4----2----2--------|--1---------------6----|---------6-----------6--4--|
--4--4--4----0----0--------|------------------6----|---------6-----------6--4--|
--2--2--2------------------|--4--------4--4-4------|--4--4-4------4--4-4----2--|
---------------------------|-----------------------|---------------------------|

----------------------|---------------------------|----------------------|
-----------------0----|---------0-----------0-----|----------------------|
----------------------|------------------------6--|-----------------6----|
-----------------4----|---------4-----------4--6--|-----------------6----|
----------2--2-2------|--2--2-2------2--2-2----4--|----------4--4-4------|
----------------------|---------------------------|----------------------|

----------------------------|----------------------|
----------------------------|----------------------|
------------------6------4--|-----------------4----|
------------------6------4--|-----------------4----|
--4-4-4-4-4-4-4-4-4---------|----------------------|
-------------------------4--|----------4--4-4------|

-----------------------------|------------------------|
-----------------------------|------------------------|
--------------------------6--|----6--6-----------6----|
--------------------------6--|----6--6-----------6----|
--------------------------4--|----4--4----4--4-4------|
--4-4-4--4--4-4-2--4-2-0-----|------------------------|

---------------------------|------------------------|
------------------------4--|------------------------|
---------6-----------6--3--|----4--4-----------4----|
---------6-----------6-----|----4--4-----------4----|
--4--4-4------4--4-4-------|------------4--4-4------|
---------------------------|------------------------|

------------------------0--|------------------------|
---------------------------|----2--2----------------|
---------4-----------4--4--|----1--1-----------6----|
---------4-----------4-----|-------------------6----|
--4--4-4------4--4-4-------|-------4----4--4-4------|
---------------------------|------------------------|

---------------------------|------------------------|
------------------------4--|------------------------|
---------6-----------6--3--|----4--4-----------4----|
---------6-----------6-----|----4--4-----------4----|
--4--4-4------4--4-4-------|------------4--4-4------|
---------------------------|------------------------|

---------------------------|----------------------|---------------------------|
------------------------0--|-----------------0----|---------0-----------0-----|
---------4-----------4-----|----------------------|------------------------2--|
---------4-----------4--2--|-----------------2----|---------2-----------2--2--|
--4--4-4------4--4-4----2--|----------2--2-2------|--2--2-2------2--2-2----0--|
---------------------------|----------------------|---------------------------|

-----------------------|--------------------------|----------------------|
-----------------------|-----------------------2--|----------------------|
------2-----------2----|-----2-----2-----2-----1--|-----------------6----|
------2-----------2----|-----2-----2-----2--------|-----------------6----|
------0----0--0-0-0----|--0--0--0--0--0--0--0--4--|----------4--4-4------|
-----------------------|--------------------------|----------------------|

---------------------------|----------------------|---------------------------|
---------------------------|-----------------0----|---------0-----------0-----|
---------6-----------6--4--|----------------------|------------------------6--|
---------6-----------6--4--|-----------------4----|---------4-----------4--6--|
--4--4-4------4--4-4----2--|----------2--2-2------|--2--2-2------2--2-2----4--|
---------------------------|----------------------|---------------------------|

----------------------|----------------------------|----------------------|
----------------------|----------------------------|----------------------|
-----------------6----|------------------6------4--|-----------------4----|
-----------------6----|------------------6------4--|-----------------4----|
----------4--4-4------|--4-4-4-4-4-4-4-4-4---------|----------------------|
----------------------|-------------------------4--|----------4--4-4------|

-----------------------------|------------------------|
-----------------------------|------------------------|
--------------------------6--|----6--6-----------6----|
--------------------------6--|----6--6-----------6----|
--------------------------4--|----4--4----4--4-4------|
--4-4-4--4--4-4-2--4-2-0-----|------------------------|

---------------------------|------------------------|
------------------------4--|------------------------|
---------6-----------6--3--|----4--4-----------4----|
---------6-----------6-----|----4--4-----------4----|
--4--4-4------4--4-4-------|------------4--4-4------|
---------------------------|------------------------|

------------------------0--|------------------------|
---------------------------|----2--2----------------|
---------4-----------4--4--|----1--1-----------6----|
---------4-----------4-----|-------------------6----|
--4--4-4------4--4-4-------|-------4----4--4-4------|
---------------------------|------------------------|

---------------------------|------------------------|
------------------------4--|------------------------|
---------6-----------6--3--|----4--4-----------4----|
---------6-----------6-----|----4--4-----------4----|
--4--4-4------4--4-4-------|------------4--4-4------|
---------------------------|------------------------|

---------------------------|----------------------|---------------------------|
------------------------0--|-----------------0----|---------0-----------0-----|
---------4-----------4-----|----------------------|------------------------2--|
---------4-----------4--2--|-----------------2----|---------2-----------2--2--|
--4--4-4------4--4-4----2--|----------2--2-2------|--2--2-2------2--2-2----0--|
---------------------------|----------------------|---------------------------|

-----------------------|------------------------|
-----------------------|------------------------|
------2-----------2----|-----2-----2-----2------|
------2-----------2----|-----2-----2-----2------|
------0----0--0-0-0----|--0--0--0--0--0--0------|
-----------------------|------------------------|

----------------------------------|----------------------------------|
----------------------------------|----------------------------------|
--------------------------1-1-----|------------------2-2-----1-1-----|
--------------2-2-----------------|--0-0-4-4-0-0-0-0-----0-0-----0-0-|
--4-4-4-4-4-4-----4-4-4-4-----4-4-|----------------------------------|
----------------------------------|----------------------------------|

----------------------------------|----------------------------------|
----------------------------------|----------------------------------|
--------------------------1-1-----|------------------2-2-----1-1-----|
--------------2-2-----------------|--0-0-4-4-0-0-0-0-----0-0-----0-0-|
--4-4-4-4-4-4-----4-4-4-4-----4-4-|----------------------------------|
----------------------------------|----------------------------------|

----------------------------------|----------------------------------|
----------------------------------|----------------------------------|
--------------------------1-1-----|------------------2-2-----1-1-----|
--------------2-2-----------------|--0-0-4-4-0-0-0-0-----0-0-----0-0-|
--4-4-4-4-4-4-----4-4-4-4-----4-4-|----------------------------------|
----------------------------------|----------------------------------|

----------------------------------|----------------------------------|
----------------------------------|----------------------------------|
----------------------------------|----------------------------------|
----------------------------------|----------------------------------|
--4-4-4-4-4-4-2-2-2-2-2-2-0-0-0-0-|--0-0-----------------------------|
----------------------------------|------4-4-4-4-4-4-2-2-2-2-0-0-0-0-|

------------------------|-----------------------------|
------------------------|--------------------------4--|
--6----------------6----|----------6------------6--3--|
--6----------------6----|----------6------------6-----|
--4--------4-4-4-4------|--4-4-4-4------4-4-4-4-------|
------------------------|-----------------------------|

-------------------------|----------------------0--|-------------------------|
-------------------------|-------------------------|----2--2-----------------|
----4--4------------4----|----------4------4----4--|----1--1------------6----|
----4--4------------4----|----------4------4-------|--------------------6----|
------------4-4-4-4------|--4-4-4-4----------------|------------4-4-4-4------|
-------------------------|-------------------------|-------------------------|

-----------------------------|------------0-------0-------|
--------------------------4--|--------------4-2-0---4-2-0-|
----------6------------6--3--|----4--4--------------------|
----------6------------6-----|----4--4--------------------|
--4-4-4-4------4-4-4-4-------|----------------------------|
-----------------------------|----------------------------|

--0-------0---------------------|-----------------------|
----4-2-0---4-2-0------------0--|------------------0----|
------------------1-------------|-----------------------|
--------------------4-2-1----2--|------------------2----|
--------------------------4--2--|----------2-2-2-2------|
--------------------------------|-----------------------|

-----------------------------|------------------------|
----------0------------0-----|------------------------|
--------------------------2--|------2------------2----|
----------2------------2--2--|------2------------2----|
--2-2-2-2------2-2-2-2----0--|------0----0-0-0-0-0----|
-----------------------------|------------------------|

--------------------------|-------------------|-------------------|
--------------------------|-------------------|-------------------|
-----2-----2-----2--------|-------------------|-------------------|
-----2-----2-----2-----6--|-------------------|-------------------|
--0--0--0--0--0--0--0--4--|----------------6--|----------------7--|
--------------------------|-------------------|-------------------|

-------------------|------------------------|------------------------|
-------------------|------------------------|------2-----------------|
-------------------|----------2----1--------|---------------4--------|
----------------0--|----2--4----------2--4--|------4--4--4--4--4--4--|
-------------------|------------------------|------------------------|
-------------------|------------------------|------------------------|

-------------------------|------------------------|-------------------------|
--3--------2-------------|------2--------0--------|--3--------2-----0----0--|
-----------------4-------|------------------------|-------------------------|
--4--4--4--4--4--4----3--|------3--3--3--3--3--3--|--3--3--3--3--3--3----2--|
-------------------------|------------------------|-------------------------|
-------------------------|------------------------|-------------------------|

---------------------2--|--4--------------------|--------------------|
----0--0-------0--------|-----0---------0----0--|--------------------|
------------------------|----------2------------|--------------------|
----2--2----2--2--2--4--|--6------------2----1--|-----------------0--|
------------------------|-----------------------|--------2-----------|
------------------------|-----------------------|--------------------|

------------------------|-----------------------------|
------------------------|------2----------------------|
----------2----1--------|-----------------4-4---------|
----2--4----------2--4--|------4--4-4-4-4-----4-4-4-4-|
------------------------|-----------------------------|
------------------------|-----------------------------|

---------------------------------|----------------------------|
--3-3-----2-2-------------2-2----|------3----------0----------|
------------------4-4------------|----------------------------|
------4-4-----4-4-----4-4-----3--|------3--3-3-3-3----3-3-3-3-|
---------------------------------|----------------------------|
---------------------------------|----------------------------|

---------------------------------|------------------------|
--3-3---------2-2-----0-0-----0--|----0--0-------0--------|
---------------------------------|------------------------|
------3-3-3-3-----3-3-----3-3-2--|----2--2----2--2--2--2--|
---------------------------------|------------------------|
---------------------------------|------------------------|

--------------------------|-------------------|-------------------------|
--0--------0-----0-----0--|-------------------|-------------------------|
--------------------------|-------------------|----------2--1-----------|
--2--2--2--2--2--2--2--1--|----------------0--|----2--4--------4--2--0--|
--------------------------|-------------------|-------------------------|
--------------------------|-------------------|-------------------------|

----------------------------------|----------------------------------|
----------------------------------|----------------------------------|
--------------------------1-1-----|------------------2-2-----1-1-----|
--------------2-2-----------------|--0-0-4-4-0-0-0-0-----0-0-----0-0-|
--4-4-4-4-4-4-----4-4-4-4-----4-4-|----------------------------------|
----------------------------------|----------------------------------|

----------------------------------|----------------------------------|
----------------------------------|----------------------------------|
--------------------------1-1-----|------------------2-2-----1-1-----|
--------------2-2-----------------|--0-0-4-4-0-0-0-0-----0-0-----0-0-|
--4-4-4-4-4-4-----4-4-4-4-----4-4-|----------------------------------|
----------------------------------|----------------------------------|

----------------------------------|----------------------------------|
----------------------------------|----------------------------------|
--------------------------1-1-----|------------------2-2-----1-1-----|
--------------2-2-----------------|--0-0-4-4-0-0-0-0-----0-0-----0-0-|
--4-4-4-4-4-4-----4-4-4-4-----4-4-|----------------------------------|
----------------------------------|----------------------------------|

-------------------------|----------------------------|------------------------|
-------------------------|--------------3----3--------|--2---------------------|
-----------4-------------|--------------2----2--------|--1----------------6----|
-----0-----4-------------|--------------0----0--------|-------------------6----|
--4-----4--2----2--0-----|----------------------------|--4--------4-4-4-4------|
----------------------4--|--2--0--2--4----------------|------------------------|

-----------------------------|-------------------------|
--------------------------4--|-------------------------|
----------6------------6--3--|----4--4------------4----|
----------6------------6-----|----4--4------------4----|
--4-4-4-4------4-4-4-4-------|------------4-4-4-4------|
-----------------------------|-------------------------|

----------------------0--|-------------------------|
-------------------------|----2--2-----------------|
----------4------4----4--|----1--1------------6----|
----------4------4-------|--------------------6----|
--4-4-4-4----------------|------------4-4-4-4------|
-------------------------|-------------------------|

-----------------------------|------------0-------0-------|
--------------------------4--|--------------4-2-0---4-2-0-|
----------6------------6--3--|----4--4--------------------|
----------6------------6-----|----4--4--------------------|
--4-4-4-4------4-4-4-4-------|----------------------------|
-----------------------------|----------------------------|

--0-------0---------------------|-----------------------|
----4-2-0---4-2-0------------0--|------------------0----|
------------------1-------------|-----------------------|
--------------------4-2-1----2--|------------------2----|
--------------------------4--2--|----------2-2-2-2------|
--------------------------------|-----------------------|

-----------------------------|------------------------|
----------0------------0-----|------------------------|
--------------------------2--|------2------------2----|
----------2------------2--2--|------2------------2----|
--2-2-2-2------2-2-2-2----0--|------0----0-0-0-0-0----|
-----------------------------|------------------------|

--------------------------|-------------------|-------------------|
--------------------------|-------------------|-------------------|
-----2-----2-----2--------|-------------------|-------------------|
-----2-----2-----2-----6--|-------------------|-------------------|
--0--0--0--0--0--0--0--4--|----------------6--|----------------7--|
--------------------------|-------------------|-------------------|

-------------------|------------------------|------------------------|
-------------------|------------------------|------2-----------------|
-------------------|----------2----1--------|---------------4--------|
----------------0--|----2--4----------2--4--|------4--4--4--4--4--4--|
-------------------|------------------------|------------------------|
-------------------|------------------------|------------------------|

-------------------------|------------------------|-------------------------|
--3--------2-------------|------2--------0--------|--3--------2-----0----0--|
-----------------4-------|------------------------|-------------------------|
--4--4--4--4--4--4----3--|------3--3--3--3--3--3--|--3--3--3--3--3--3----2--|
-------------------------|------------------------|-------------------------|
-------------------------|------------------------|-------------------------|

---------------------2--|--4--------------------|--------------------|
----0--0-------0--------|-----0---------0----0--|--------------------|
------------------------|----------2------------|--------------------|
----2--2----2--2--2--4--|--6------------2----1--|-----------------0--|
------------------------|-----------------------|--------2-----------|
------------------------|-----------------------|--------------------|

------------------------|-----------------------------|
------------------------|------2----------------------|
----------2----1--------|-----------------4-4---------|
----2--4----------2--4--|------4--4-4-4-4-----4-4-4-4-|
------------------------|-----------------------------|
------------------------|-----------------------------|

---------------------------------|----------------------------|
--3-3-----2-2-------------2-2----|------3----------0----------|
------------------4-4------------|----------------------------|
------4-4-----4-4-----4-4-----3--|------3--3-3-3-3----3-3-3-3-|
---------------------------------|----------------------------|
---------------------------------|----------------------------|

---------------------------------|------------------------|
--3-3---------2-2-----0-0-----0--|----0--0-------0--------|
---------------------------------|------------------------|
------3-3-3-3-----3-3-----3-3-2--|----2--2----2--2--2--2--|
---------------------------------|------------------------|
---------------------------------|------------------------|

--------------------------|-------------------|-------------------------|
--0--------0-----0-----0--|-------------------|-------------------------|
--------------------------|-------------------|----------2--1-----------|
--2--2--2--2--2--2--2--1--|----------------0--|----2--4--------4--2--0--|
--------------------------|-------------------|-------------------------|
--------------------------|-------------------|-------------------------|

-------------------|------------------|------------------|------------------|
-------------------|------------------|------------------|------------------|
-------------------|------------------|------------------|------------------|
-------------------|------------------|------------------|------------------|
--4----------------|------------------|------------------|------------------|
-------------------|------------------|------------------|------------------|

------------------|------------------|------------------|------------------|
------------------|------------------|------------------|------------------|
------------------|------------------|------------------|------------------|
------------------|------------------|------------------|------------------|
------------------|------------------|------------------|------------------|
------------------|------------------|------------------|------------------|

------------------|------------------|------------------|------------------|
------------------|------------------|------------------|------------------|
------------------|------------------|------------------|------------------|
------------------|------------------|------------------|------------------|
------------------|------------------|------------------|------------------|
------------------|------------------|------------------|------------------|

------------------|------------------|------------------|------------------|
------------------|------------------|------------------|------------------|
------------------|------------------|------------------|------------------|
------------------|------------------|------------------|------------------|
------------------|------------------|------------------|------------------|
------------------|------------------|------------------|------------------|

---------------------|------------------|-----------------------|
---------------------|------------------|-----------------------|
---------------------|------------------|--6---------------6----|
---------------------|------------------|--6---------------6----|
----------------2----|------------------|--4--------4--4-4------|
--2------4-----------|------------------|-----------------------|

---------------------------|----------------------|---------------------------|
------------------------0--|----------------------|------------------------0--|
---------6-----------6-----|-----------------4----|---------4-----------4-----|
---------6-----------6--4--|-----------------4----|---------4-----------4--2--|
--4--4-4------4--4-4-------|----------4--4-4------|--4--4-4------4--4-4----2--|
---------------------------|----------------------|---------------------------|

----------------------|---------------------------|----------------------|
-----------------0----|---------0-----------0-----|----------------------|
----------------------|------------------------2--|-----------------2----|
-----------------2----|---------2-----------2--2--|-----------------2----|
----------2--2-2------|--2--2-2------2--2-2----0--|----------0--0-0------|
----------------------|---------------------------|----------------------|

---------------------------|------------------------|
---------3-----------3--2--|---------2--------------|
---------2-----------2--1--|---------1---------6----|
--0--0-0------0--0-0-------|-------------------6----|
------------------------4--|------4-----4--4-4------|
---------------------------|------------------------|

---------------------------|-----------------------|------------------------|
------------------------0--|-----------------------|---------------------0--|
---------6-----------6-----|------4-----------4----|------------------------|
---------6-----------6--4--|------4-----------4----|---------------------2--|
--4--4-4------4--4-4-------|-----------4--4-4------|--4-4-4-4-4-4-4------2--|
---------------------------|-----------------------|------------------------|

-----------------------|---------------------------|-----------------------|
------0-----------0----|---------0-----------0-----|-----------------------|
-----------------------|------------------------2--|------2-----------2----|
------2-----------2----|---------2-----------2--2--|------2-----------2----|
------2----2--2-2------|--2--2-2------2--2-2----0--|------0----0--0-0------|
-----------------------|---------------------------|-----------------------|

--------------------------|--------------------------|-------------------------|
---------3-----------3----|--------2-----------------|--3--------2-------------|
---------2-----------2----|-----------------4--------|-----------------4-------|
--0--0-0------0--0-0------|--4--4--4--4--4--4--4--4--|--4--4--4--4--4--4----3--|
--------------------------|--------------------------|-------------------------|
--------------------------|--------------------------|-------------------------|

------------------------|-------------------------|---------------------2--|
------2--------0--------|--3--------2-----0----0--|----0--0-------0--------|
------------------------|-------------------------|------------------------|
------3--3--3--3--3--3--|--3--3--3--3--3--3----2--|----2--2----2--2--2--4--|
------------------------|-------------------------|------------------------|
------------------------|-------------------------|------------------------|

----0-----------------|-------------------|--------------------|
----0---------0-------|-------------------|--------0--------2--|
---------2------------|----------------2--|--------------------|
--------------2----4--|----------------0--|--------2--------4--|
-------------------2--|-------------------|--------------------|
----------------------|-------------------|--------------------|

------------------------------|---------------------------------|
----2--2----------------------|--3-3-----2-2-------------2-2----|
------------------4-4---------|------------------4-4------------|
----4--4--4-4-4-4-----4-4-4-4-|------4-4-----4-4-----4-4-----3--|
------------------------------|---------------------------------|
------------------------------|---------------------------------|

----------------------------|---------------------------------|
------3----------0----------|--3-3---------2-2-----0-0-----0--|
----------------------------|---------------------------------|
------3--3-3-3-3----3-3-3-3-|------3-3-3-3-----3-3-----3-3-2--|
----------------------------|---------------------------------|
----------------------------|---------------------------------|

------------------------|-------------------------|-------------------|
----0--0-------0--------|--0--------0-----0-------|-------------------|
------------------------|-------------------------|-------------------|
----2--2----2--2--2--2--|--2--2--2--2--2--2----4--|----------------0--|
------------------------|----------------------2--|-------------------|
------------------------|-------------------------|-------------------|

------------------------|------------------------|-------------------------|
------------------------|------2-----------------|--3--------2-------------|
----------2----1--------|---------------4--------|-----------------4-------|
----2--4----------2--4--|------4--4--4--4--4--4--|--4--4--4--4--4--4----3--|
------------------------|------------------------|-------------------------|
------------------------|------------------------|-------------------------|

------------------------|-------------------------|---------------------2--|
------2--------0--------|--3--------2-----0----0--|----0--0-------0--------|
------------------------|-------------------------|------------------------|
------3--3--3--3--3--3--|--3--3--3--3--3--3----2--|----2--2----2--2--2--4--|
------------------------|-------------------------|------------------------|
------------------------|-------------------------|------------------------|

--4--------------------|--------------------|--------------------|
-----0---------0----0--|--------------------|--------0--------2--|
----------2------------|-----------------2--|--------------------|
--6------------2----1--|-----------------0--|--------2--------4--|
-----------------------|--------2-----------|--------------------|
-----------------------|--------------------|--------------------|

----------------------------|------------------------------|
------2----------2----------|--2----------2------2---------|
----------------------------|------------------------------|
------4--4-4-4-4-4--4-4-4-4-|--4--4-4-4-4-4--4-4-4--4-4-6--|
----------------------------|---------------------------4--|
----------------------------|------------------------------|

----------------------------|---------------------------------|
----------------------------|------------------------------0--|
----------------------------|---------------------------------|
------6----------6----------|--6---------------------------2--|
------4--4-4-4-4-4--4-4-4-4-|--4-4-4-4-4-4-4-4-4-4-4-4-4-4----|
----------------------------|---------------------------------|

-----------------------------|----------------------------|-------------------|
----0--0----------0----------|--0----------0------0-------|-------------------|
-----------------------------|----------------------------|-------------------|
----2--2--2-2-2-2-2--2-2-2-2-|--2--2-2-2-2-2--2-2-2----4--|----------------0--|
-----------------------------|-------------------------2--|-------------------|
-----------------------------|----------------------------|-------------------|

-------------------------|----------------------------------|
-------------------------|----------------------------------|
----------2--1-----------|--------------------------1-1-----|
----2--4--------4--2--0--|--------------2-2-----------------|
-------------------------|--4-4-4-4-4-4-----4-4-4-4-----4-4-|
-------------------------|----------------------------------|

----------------------------------|----------------------------------|
----------------------------------|----------------------------------|
------------------2-2-----1-1-----|--------------------------1-1-----|
--0-0-4-4-0-0-0-0-----0-0-----0-0-|--------------2-2-----------------|
----------------------------------|--4-4-4-4-4-4-----4-4-4-4-----4-4-|
----------------------------------|----------------------------------|

----------------------------------|----------------------------------|
----------------------------------|----------------------------------|
------------------2-2-----1-1-----|--------------------------1-1-----|
--0-0-4-4-0-0-0-0-----0-0-----0-0-|--------------2-2-----------------|
----------------------------------|--4-4-4-4-4-4-----4-4-4-4-----4-4-|
----------------------------------|----------------------------------|

----------------------------------|----------------------------------|
----------------------------------|----------------------------------|
------------------2-2-----1-1-----|--------------------------1-1-----|
--0-0-4-4-0-0-0-0-----0-0-----0-0-|--------------2-2-----------------|
----------------------------------|--4-4-4-4-4-4-----4-4-4-4-----4-4-|
----------------------------------|----------------------------------|

----------------------------||
----------------------------||
------------------2-2-------||
--0-0-4-4-0-0-0-0-----------||
----------------------------||
----------------------------||
Composição de Charlie Dominicci
Colaboração e revisão:
  • Taino Vieira
4.289 exibições
    • ½ Tom
    • A
    • Bb
    • B
    • C
    • Db
    • D
    • Eb
    • E
    • F
    • F#
    • G
    • Ab
  • Adicionar à lista

    0 comentários

    Ver todos os comentários
    00:00 / 00:00
    outros vídeos desta música
    repetir qualidade Automático
    Outros vídeos desta música
    00:00 / 00:00
    Automático

    Cifra Club Pro

    Aproveite o Cifra Club com benefícios exclusivos e sem anúncios
    Cifra Club Pro
    Aproveite o Cifra Club com benefícios exclusivos e sem anúncios
    OK