Cifra Club

Aprenda

When I Come Around

Green Day

Cifra: Versão 6 (violão e guitarra)
Tom: B
Quando saiu o dookie, o gd afinava em EbAbDbGb, mas essa tab ta para a finação normal EADG:

"I heard you crying loud...." e os demais versos

|-----3h4p3----------------------                     |----3hp4------------------
|-4-44---------3h4p3-----4------- ou (simplificando)  |-4-4-------3h4p3----------
|----------4-44------6-66--2---2-                     |--------4-4------6-6--2---
|----------------------------22--                     |--------------------------

no refrão:

No time to search the world around...

|-----------------------
|----------------4h6p4--
|---------------------6-
|-4-444444-7-777-------

'Cause you know where I’ll be found

|-----------------------
|-----------------------
|-----------------------
|-4-444444-7-777777-----

When I come around... !

|------------------4p3--
|-----------------------
|-----------------------
|-----------------------

Composição de Billie Joe Armstrong / Green Day
Colaboração e revisão:
  • fernando athayde
11.276 exibições
  • Simplificar cifra
    • ½ Tom
    • A
    • Bb
    • B
    • C
    • Db
    • D
    • Eb
    • E
    • F
    • F#
    • G
    • Ab
  • Adicionar à lista

    0 comentários

    Mostrar mais comentários

    Conseguiu tocar?

    0 Tocaram 0 Ainda não

    Grave um vídeo tocando When I Come Around e mande pra gente!

    00:00 / 00:00
    outros vídeos desta música
    repetir qualidade Automático
    Outros vídeos desta música
    00:00 / 00:00
    Automático
    Capítulos
    • Tocando a Música
    • Apresentação / Equipamentos
    • Configurações do Amplificador
    • Pedais Utilizados
    • Dicas da Música
    • Acordes da Introdução e Versos
    • Tocando Introdução e Primeira Parte
    • Ritmo Introdução e Primeira Parte
    • Acordes do Refrão
    • Tocando Primeiro Refrão
    • Ritmo Refrão
    • Tocando Solo
    • Ensinando Solo
    • Encerramento

    Cifra Club Pro

    Aproveite o Cifra Club com benefícios exclusivos e sem anúncios
    7 dias grátis
    Cifra Club Pro
    Aproveite o Cifra Club com benefícios exclusivos e sem anúncios
    7 dias grátis
    OK